ISO-10303-21;
HEADER;
/* Generated by software containing ST-Developer
 * from STEP Tools, Inc. (www.steptools.com) 
 */
/* OPTION: strings as raw bytes, not using required /X/ escapes */

FILE_DESCRIPTION(
/* description */ ('Unknown'),
/* implementation_level */ '2;1');

FILE_NAME(
/* name */ 'X3-WLB1608-2',
/* time_stamp */ '2021-05-13T09:29:43+08:00',
/* author */ ('Unknown'),
/* organization */ ('Unknown'),
/* preprocessor_version */ 'ST-DEVELOPER v16.7',
/* originating_system */ 'DEX',
/* authorisation */ $);

FILE_SCHEMA (('AUTOMOTIVE_DESIGN {1 0 10303 214 3 1 1}'));
ENDSEC;

DATA;
#10=PROPERTY_DEFINITION_REPRESENTATION(#14,#12);
#11=PROPERTY_DEFINITION_REPRESENTATION(#15,#13);
#12=REPRESENTATION('',(#16),#557);
#13=REPRESENTATION('',(#17),#557);
#14=PROPERTY_DEFINITION('pmi validation property','',#566);
#15=PROPERTY_DEFINITION('pmi validation property','',#566);
#16=VALUE_REPRESENTATION_ITEM('number of annotations',COUNT_MEASURE(0.));
#17=VALUE_REPRESENTATION_ITEM('number of views',COUNT_MEASURE(0.));
#18=CONTEXT_DEPENDENT_SHAPE_REPRESENTATION(#22,#568);
#19=CONTEXT_DEPENDENT_SHAPE_REPRESENTATION(#23,#570);
#20=NEXT_ASSEMBLY_USAGE_OCCURRENCE('Bump','Bump','Bump',#571,#572,'');
#21=NEXT_ASSEMBLY_USAGE_OCCURRENCE('Chip','Chip','Chip',#571,#573,'');
#22=(
REPRESENTATION_RELATIONSHIP(' ',' ',#357,#358)
REPRESENTATION_RELATIONSHIP_WITH_TRANSFORMATION(#24)
SHAPE_REPRESENTATION_RELATIONSHIP()
);
#23=(
REPRESENTATION_RELATIONSHIP(' ',' ',#359,#358)
REPRESENTATION_RELATIONSHIP_WITH_TRANSFORMATION(#25)
SHAPE_REPRESENTATION_RELATIONSHIP()
);
#24=ITEM_DEFINED_TRANSFORMATION(' ',' ',#360,#376);
#25=ITEM_DEFINED_TRANSFORMATION(' ',' ',#360,#383);
#26=SHAPE_REPRESENTATION_RELATIONSHIP('','',#357,#28);
#27=SHAPE_REPRESENTATION_RELATIONSHIP('','',#359,#29);
#28=ADVANCED_BREP_SHAPE_REPRESENTATION('',(#351,#352),#558);
#29=ADVANCED_BREP_SHAPE_REPRESENTATION('',(#353),#559);
#30=CIRCLE('',#366,0.099999999999989);
#31=CIRCLE('',#367,0.099999999999989);
#32=CYLINDRICAL_SURFACE('',#365,0.099999999999989);
#33=ORIENTED_EDGE('',*,*,#111,.F.);
#34=ORIENTED_EDGE('',*,*,#112,.F.);
#35=ORIENTED_EDGE('',*,*,#113,.T.);
#36=ORIENTED_EDGE('',*,*,#114,.T.);
#37=ORIENTED_EDGE('',*,*,#115,.F.);
#38=ORIENTED_EDGE('',*,*,#114,.F.);
#39=ORIENTED_EDGE('',*,*,#116,.T.);
#40=ORIENTED_EDGE('',*,*,#117,.T.);
#41=ORIENTED_EDGE('',*,*,#118,.F.);
#42=ORIENTED_EDGE('',*,*,#117,.F.);
#43=ORIENTED_EDGE('',*,*,#119,.T.);
#44=ORIENTED_EDGE('',*,*,#120,.T.);
#45=ORIENTED_EDGE('',*,*,#121,.F.);
#46=ORIENTED_EDGE('',*,*,#120,.F.);
#47=ORIENTED_EDGE('',*,*,#122,.T.);
#48=ORIENTED_EDGE('',*,*,#123,.T.);
#49=ORIENTED_EDGE('',*,*,#124,.F.);
#50=ORIENTED_EDGE('',*,*,#123,.F.);
#51=ORIENTED_EDGE('',*,*,#125,.T.);
#52=ORIENTED_EDGE('',*,*,#112,.T.);
#53=ORIENTED_EDGE('',*,*,#113,.F.);
#54=ORIENTED_EDGE('',*,*,#125,.F.);
#55=ORIENTED_EDGE('',*,*,#122,.F.);
#56=ORIENTED_EDGE('',*,*,#119,.F.);
#57=ORIENTED_EDGE('',*,*,#116,.F.);
#58=ORIENTED_EDGE('',*,*,#111,.T.);
#59=ORIENTED_EDGE('',*,*,#115,.T.);
#60=ORIENTED_EDGE('',*,*,#118,.T.);
#61=ORIENTED_EDGE('',*,*,#121,.T.);
#62=ORIENTED_EDGE('',*,*,#124,.T.);
#63=ORIENTED_EDGE('',*,*,#126,.T.);
#64=ORIENTED_EDGE('',*,*,#127,.F.);
#65=ORIENTED_EDGE('',*,*,#128,.F.);
#66=ORIENTED_EDGE('',*,*,#129,.T.);
#67=ORIENTED_EDGE('',*,*,#130,.T.);
#68=ORIENTED_EDGE('',*,*,#131,.F.);
#69=ORIENTED_EDGE('',*,*,#132,.F.);
#70=ORIENTED_EDGE('',*,*,#127,.T.);
#71=ORIENTED_EDGE('',*,*,#133,.T.);
#72=ORIENTED_EDGE('',*,*,#134,.F.);
#73=ORIENTED_EDGE('',*,*,#135,.F.);
#74=ORIENTED_EDGE('',*,*,#131,.T.);
#75=ORIENTED_EDGE('',*,*,#136,.T.);
#76=ORIENTED_EDGE('',*,*,#129,.F.);
#77=ORIENTED_EDGE('',*,*,#137,.F.);
#78=ORIENTED_EDGE('',*,*,#134,.T.);
#79=ORIENTED_EDGE('',*,*,#128,.T.);
#80=ORIENTED_EDGE('',*,*,#132,.T.);
#81=ORIENTED_EDGE('',*,*,#135,.T.);
#82=ORIENTED_EDGE('',*,*,#137,.T.);
#83=ORIENTED_EDGE('',*,*,#126,.F.);
#84=ORIENTED_EDGE('',*,*,#136,.F.);
#85=ORIENTED_EDGE('',*,*,#133,.F.);
#86=ORIENTED_EDGE('',*,*,#130,.F.);
#87=ORIENTED_EDGE('',*,*,#138,.T.);
#88=ORIENTED_EDGE('',*,*,#139,.F.);
#89=ORIENTED_EDGE('',*,*,#140,.F.);
#90=ORIENTED_EDGE('',*,*,#141,.T.);
#91=ORIENTED_EDGE('',*,*,#142,.T.);
#92=ORIENTED_EDGE('',*,*,#143,.F.);
#93=ORIENTED_EDGE('',*,*,#144,.F.);
#94=ORIENTED_EDGE('',*,*,#139,.T.);
#95=ORIENTED_EDGE('',*,*,#145,.T.);
#96=ORIENTED_EDGE('',*,*,#146,.F.);
#97=ORIENTED_EDGE('',*,*,#147,.F.);
#98=ORIENTED_EDGE('',*,*,#143,.T.);
#99=ORIENTED_EDGE('',*,*,#148,.T.);
#100=ORIENTED_EDGE('',*,*,#141,.F.);
#101=ORIENTED_EDGE('',*,*,#149,.F.);
#102=ORIENTED_EDGE('',*,*,#146,.T.);
#103=ORIENTED_EDGE('',*,*,#140,.T.);
#104=ORIENTED_EDGE('',*,*,#144,.T.);
#105=ORIENTED_EDGE('',*,*,#147,.T.);
#106=ORIENTED_EDGE('',*,*,#149,.T.);
#107=ORIENTED_EDGE('',*,*,#138,.F.);
#108=ORIENTED_EDGE('',*,*,#148,.F.);
#109=ORIENTED_EDGE('',*,*,#145,.F.);
#110=ORIENTED_EDGE('',*,*,#142,.F.);
#111=EDGE_CURVE('',#150,#151,#176,.T.);
#112=EDGE_CURVE('',#152,#150,#177,.T.);
#113=EDGE_CURVE('',#152,#153,#178,.T.);
#114=EDGE_CURVE('',#153,#151,#179,.T.);
#115=EDGE_CURVE('',#151,#154,#180,.T.);
#116=EDGE_CURVE('',#153,#155,#181,.T.);
#117=EDGE_CURVE('',#155,#154,#182,.T.);
#118=EDGE_CURVE('',#154,#156,#183,.T.);
#119=EDGE_CURVE('',#155,#157,#184,.T.);
#120=EDGE_CURVE('',#157,#156,#185,.T.);
#121=EDGE_CURVE('',#156,#158,#186,.T.);
#122=EDGE_CURVE('',#157,#159,#187,.T.);
#123=EDGE_CURVE('',#159,#158,#188,.T.);
#124=EDGE_CURVE('',#158,#150,#30,.T.);
#125=EDGE_CURVE('',#159,#152,#31,.T.);
#126=EDGE_CURVE('',#160,#161,#189,.T.);
#127=EDGE_CURVE('',#162,#161,#190,.T.);
#128=EDGE_CURVE('',#163,#162,#191,.T.);
#129=EDGE_CURVE('',#163,#160,#192,.T.);
#130=EDGE_CURVE('',#161,#164,#193,.T.);
#131=EDGE_CURVE('',#165,#164,#194,.T.);
#132=EDGE_CURVE('',#162,#165,#195,.T.);
#133=EDGE_CURVE('',#164,#166,#196,.T.);
#134=EDGE_CURVE('',#167,#166,#197,.T.);
#135=EDGE_CURVE('',#165,#167,#198,.T.);
#136=EDGE_CURVE('',#166,#160,#199,.T.);
#137=EDGE_CURVE('',#167,#163,#200,.T.);
#138=EDGE_CURVE('',#168,#169,#201,.T.);
#139=EDGE_CURVE('',#170,#169,#202,.T.);
#140=EDGE_CURVE('',#171,#170,#203,.T.);
#141=EDGE_CURVE('',#171,#168,#204,.T.);
#142=EDGE_CURVE('',#169,#172,#205,.T.);
#143=EDGE_CURVE('',#173,#172,#206,.T.);
#144=EDGE_CURVE('',#170,#173,#207,.T.);
#145=EDGE_CURVE('',#172,#174,#208,.T.);
#146=EDGE_CURVE('',#175,#174,#209,.T.);
#147=EDGE_CURVE('',#173,#175,#210,.T.);
#148=EDGE_CURVE('',#174,#168,#211,.T.);
#149=EDGE_CURVE('',#175,#171,#212,.T.);
#150=VERTEX_POINT('',#472);
#151=VERTEX_POINT('',#473);
#152=VERTEX_POINT('',#475);
#153=VERTEX_POINT('',#477);
#154=VERTEX_POINT('',#481);
#155=VERTEX_POINT('',#483);
#156=VERTEX_POINT('',#487);
#157=VERTEX_POINT('',#489);
#158=VERTEX_POINT('',#493);
#159=VERTEX_POINT('',#495);
#160=VERTEX_POINT('',#504);
#161=VERTEX_POINT('',#505);
#162=VERTEX_POINT('',#507);
#163=VERTEX_POINT('',#509);
#164=VERTEX_POINT('',#513);
#165=VERTEX_POINT('',#515);
#166=VERTEX_POINT('',#519);
#167=VERTEX_POINT('',#521);
#168=VERTEX_POINT('',#531);
#169=VERTEX_POINT('',#532);
#170=VERTEX_POINT('',#534);
#171=VERTEX_POINT('',#536);
#172=VERTEX_POINT('',#540);
#173=VERTEX_POINT('',#542);
#174=VERTEX_POINT('',#546);
#175=VERTEX_POINT('',#548);
#176=LINE('',#471,#213);
#177=LINE('',#474,#214);
#178=LINE('',#476,#215);
#179=LINE('',#478,#216);
#180=LINE('',#480,#217);
#181=LINE('',#482,#218);
#182=LINE('',#484,#219);
#183=LINE('',#486,#220);
#184=LINE('',#488,#221);
#185=LINE('',#490,#222);
#186=LINE('',#492,#223);
#187=LINE('',#494,#224);
#188=LINE('',#496,#225);
#189=LINE('',#503,#226);
#190=LINE('',#506,#227);
#191=LINE('',#508,#228);
#192=LINE('',#510,#229);
#193=LINE('',#512,#230);
#194=LINE('',#514,#231);
#195=LINE('',#516,#232);
#196=LINE('',#518,#233);
#197=LINE('',#520,#234);
#198=LINE('',#522,#235);
#199=LINE('',#524,#236);
#200=LINE('',#525,#237);
#201=LINE('',#530,#238);
#202=LINE('',#533,#239);
#203=LINE('',#535,#240);
#204=LINE('',#537,#241);
#205=LINE('',#539,#242);
#206=LINE('',#541,#243);
#207=LINE('',#543,#244);
#208=LINE('',#545,#245);
#209=LINE('',#547,#246);
#210=LINE('',#549,#247);
#211=LINE('',#551,#248);
#212=LINE('',#552,#249);
#213=VECTOR('',#388,1000.);
#214=VECTOR('',#389,1000.);
#215=VECTOR('',#390,1000.);
#216=VECTOR('',#391,1000.);
#217=VECTOR('',#394,1000.);
#218=VECTOR('',#395,1000.);
#219=VECTOR('',#396,1000.);
#220=VECTOR('',#399,1000.);
#221=VECTOR('',#400,1000.);
#222=VECTOR('',#401,1000.);
#223=VECTOR('',#404,1000.);
#224=VECTOR('',#405,1000.);
#225=VECTOR('',#406,1000.);
#226=VECTOR('',#419,1000.);
#227=VECTOR('',#420,1000.);
#228=VECTOR('',#421,1000.);
#229=VECTOR('',#422,1000.);
#230=VECTOR('',#425,1000.);
#231=VECTOR('',#426,1000.);
#232=VECTOR('',#427,1000.);
#233=VECTOR('',#430,1000.);
#234=VECTOR('',#431,1000.);
#235=VECTOR('',#432,1000.);
#236=VECTOR('',#435,1000.);
#237=VECTOR('',#436,1000.);
#238=VECTOR('',#445,1000.);
#239=VECTOR('',#446,1000.);
#240=VECTOR('',#447,1000.);
#241=VECTOR('',#448,1000.);
#242=VECTOR('',#451,1000.);
#243=VECTOR('',#452,1000.);
#244=VECTOR('',#453,1000.);
#245=VECTOR('',#456,1000.);
#246=VECTOR('',#457,1000.);
#247=VECTOR('',#458,1000.);
#248=VECTOR('',#461,1000.);
#249=VECTOR('',#462,1000.);
#250=EDGE_LOOP('',(#33,#34,#35,#36));
#251=EDGE_LOOP('',(#37,#38,#39,#40));
#252=EDGE_LOOP('',(#41,#42,#43,#44));
#253=EDGE_LOOP('',(#45,#46,#47,#48));
#254=EDGE_LOOP('',(#49,#50,#51,#52));
#255=EDGE_LOOP('',(#53,#54,#55,#56,#57));
#256=EDGE_LOOP('',(#58,#59,#60,#61,#62));
#257=EDGE_LOOP('',(#63,#64,#65,#66));
#258=EDGE_LOOP('',(#67,#68,#69,#70));
#259=EDGE_LOOP('',(#71,#72,#73,#74));
#260=EDGE_LOOP('',(#75,#76,#77,#78));
#261=EDGE_LOOP('',(#79,#80,#81,#82));
#262=EDGE_LOOP('',(#83,#84,#85,#86));
#263=EDGE_LOOP('',(#87,#88,#89,#90));
#264=EDGE_LOOP('',(#91,#92,#93,#94));
#265=EDGE_LOOP('',(#95,#96,#97,#98));
#266=EDGE_LOOP('',(#99,#100,#101,#102));
#267=EDGE_LOOP('',(#103,#104,#105,#106));
#268=EDGE_LOOP('',(#107,#108,#109,#110));
#269=FACE_BOUND('',#250,.T.);
#270=FACE_BOUND('',#251,.T.);
#271=FACE_BOUND('',#252,.T.);
#272=FACE_BOUND('',#253,.T.);
#273=FACE_BOUND('',#254,.T.);
#274=FACE_BOUND('',#255,.T.);
#275=FACE_BOUND('',#256,.T.);
#276=FACE_BOUND('',#257,.T.);
#277=FACE_BOUND('',#258,.T.);
#278=FACE_BOUND('',#259,.T.);
#279=FACE_BOUND('',#260,.T.);
#280=FACE_BOUND('',#261,.T.);
#281=FACE_BOUND('',#262,.T.);
#282=FACE_BOUND('',#263,.T.);
#283=FACE_BOUND('',#264,.T.);
#284=FACE_BOUND('',#265,.T.);
#285=FACE_BOUND('',#266,.T.);
#286=FACE_BOUND('',#267,.T.);
#287=FACE_BOUND('',#268,.T.);
#288=PLANE('',#361);
#289=PLANE('',#362);
#290=PLANE('',#363);
#291=PLANE('',#364);
#292=PLANE('',#368);
#293=PLANE('',#369);
#294=PLANE('',#370);
#295=PLANE('',#371);
#296=PLANE('',#372);
#297=PLANE('',#373);
#298=PLANE('',#374);
#299=PLANE('',#375);
#300=PLANE('',#377);
#301=PLANE('',#378);
#302=PLANE('',#379);
#303=PLANE('',#380);
#304=PLANE('',#381);
#305=PLANE('',#382);
#306=ADVANCED_FACE('',(#269),#288,.T.);
#307=ADVANCED_FACE('',(#270),#289,.T.);
#308=ADVANCED_FACE('',(#271),#290,.T.);
#309=ADVANCED_FACE('',(#272),#291,.T.);
#310=ADVANCED_FACE('',(#273),#32,.F.);
#311=ADVANCED_FACE('',(#274),#292,.T.);
#312=ADVANCED_FACE('',(#275),#293,.F.);
#313=ADVANCED_FACE('',(#276),#294,.F.);
#314=ADVANCED_FACE('',(#277),#295,.F.);
#315=ADVANCED_FACE('',(#278),#296,.F.);
#316=ADVANCED_FACE('',(#279),#297,.F.);
#317=ADVANCED_FACE('',(#280),#298,.T.);
#318=ADVANCED_FACE('',(#281),#299,.F.);
#319=ADVANCED_FACE('',(#282),#300,.F.);
#320=ADVANCED_FACE('',(#283),#301,.F.);
#321=ADVANCED_FACE('',(#284),#302,.F.);
#322=ADVANCED_FACE('',(#285),#303,.F.);
#323=ADVANCED_FACE('',(#286),#304,.T.);
#324=ADVANCED_FACE('',(#287),#305,.F.);
#325=CLOSED_SHELL('',(#306,#307,#308,#309,#310,#311,#312));
#326=CLOSED_SHELL('',(#313,#314,#315,#316,#317,#318));
#327=CLOSED_SHELL('',(#319,#320,#321,#322,#323,#324));
#328=STYLED_ITEM('',(#331),#351);
#329=STYLED_ITEM('',(#332),#352);
#330=STYLED_ITEM('',(#333),#353);
#331=PRESENTATION_STYLE_ASSIGNMENT((#334));
#332=PRESENTATION_STYLE_ASSIGNMENT((#335));
#333=PRESENTATION_STYLE_ASSIGNMENT((#336));
#334=SURFACE_STYLE_USAGE(.BOTH.,#337);
#335=SURFACE_STYLE_USAGE(.BOTH.,#338);
#336=SURFACE_STYLE_USAGE(.BOTH.,#339);
#337=SURFACE_SIDE_STYLE('',(#340));
#338=SURFACE_SIDE_STYLE('',(#341));
#339=SURFACE_SIDE_STYLE('',(#342));
#340=SURFACE_STYLE_FILL_AREA(#343);
#341=SURFACE_STYLE_FILL_AREA(#344);
#342=SURFACE_STYLE_FILL_AREA(#345);
#343=FILL_AREA_STYLE('',(#346));
#344=FILL_AREA_STYLE('',(#347));
#345=FILL_AREA_STYLE('',(#348));
#346=FILL_AREA_STYLE_COLOUR('',#349);
#347=FILL_AREA_STYLE_COLOUR('',#349);
#348=FILL_AREA_STYLE_COLOUR('',#350);
#349=COLOUR_RGB('',0.87058824300766,0.633254885673523,0.172549024224281);
#350=COLOUR_RGB('',0.200000002980232,0.200000002980232,0.200000002980232);
#351=MANIFOLD_SOLID_BREP('',#325);
#352=MANIFOLD_SOLID_BREP('',#326);
#353=MANIFOLD_SOLID_BREP('',#327);
#354=SHAPE_DEFINITION_REPRESENTATION(#567,#357);
#355=SHAPE_DEFINITION_REPRESENTATION(#566,#358);
#356=SHAPE_DEFINITION_REPRESENTATION(#569,#359);
#357=SHAPE_REPRESENTATION('Bump',(#360),#558);
#358=SHAPE_REPRESENTATION('X3-WLB1608-2',(#360,#376,#383),#557);
#359=SHAPE_REPRESENTATION('Chip',(#360),#559);
#360=AXIS2_PLACEMENT_3D('',#469,#384,#385);
#361=AXIS2_PLACEMENT_3D('',#470,#386,#387);
#362=AXIS2_PLACEMENT_3D('',#479,#392,#393);
#363=AXIS2_PLACEMENT_3D('',#485,#397,#398);
#364=AXIS2_PLACEMENT_3D('',#491,#402,#403);
#365=AXIS2_PLACEMENT_3D('',#497,#407,#408);
#366=AXIS2_PLACEMENT_3D('',#498,#409,#410);
#367=AXIS2_PLACEMENT_3D('',#499,#411,#412);
#368=AXIS2_PLACEMENT_3D('',#500,#413,#414);
#369=AXIS2_PLACEMENT_3D('',#501,#415,#416);
#370=AXIS2_PLACEMENT_3D('',#502,#417,#418);
#371=AXIS2_PLACEMENT_3D('',#511,#423,#424);
#372=AXIS2_PLACEMENT_3D('',#517,#428,#429);
#373=AXIS2_PLACEMENT_3D('',#523,#433,#434);
#374=AXIS2_PLACEMENT_3D('',#526,#437,#438);
#375=AXIS2_PLACEMENT_3D('',#527,#439,#440);
#376=AXIS2_PLACEMENT_3D('',#528,#441,#442);
#377=AXIS2_PLACEMENT_3D('',#529,#443,#444);
#378=AXIS2_PLACEMENT_3D('',#538,#449,#450);
#379=AXIS2_PLACEMENT_3D('',#544,#454,#455);
#380=AXIS2_PLACEMENT_3D('',#550,#459,#460);
#381=AXIS2_PLACEMENT_3D('',#553,#463,#464);
#382=AXIS2_PLACEMENT_3D('',#554,#465,#466);
#383=AXIS2_PLACEMENT_3D('',#555,#467,#468);
#384=DIRECTION('',(0.,0.,1.));
#385=DIRECTION('',(1.,0.,0.));
#386=DIRECTION('',(0.,1.,0.));
#387=DIRECTION('',(0.,0.,1.));
#388=DIRECTION('',(1.,0.,0.));
#389=DIRECTION('',(0.,0.,-1.));
#390=DIRECTION('',(1.,0.,0.));
#391=DIRECTION('',(0.,0.,-1.));
#392=DIRECTION('',(1.,0.,0.));
#393=DIRECTION('',(0.,0.,-1.));
#394=DIRECTION('',(0.,-1.,0.));
#395=DIRECTION('',(0.,-1.,0.));
#396=DIRECTION('',(0.,0.,-1.));
#397=DIRECTION('',(0.,-1.,0.));
#398=DIRECTION('',(0.,0.,-1.));
#399=DIRECTION('',(-1.,0.,0.));
#400=DIRECTION('',(-1.,0.,0.));
#401=DIRECTION('',(0.,0.,-1.));
#402=DIRECTION('',(-1.,0.,0.));
#403=DIRECTION('',(0.,0.,1.));
#404=DIRECTION('',(0.,1.,0.));
#405=DIRECTION('',(0.,1.,0.));
#406=DIRECTION('',(0.,0.,-1.));
#407=DIRECTION('',(0.,0.,-1.));
#408=DIRECTION('',(-1.,0.,0.));
#409=DIRECTION('',(0.,0.,1.));
#410=DIRECTION('',(-1.,0.,0.));
#411=DIRECTION('',(0.,0.,1.));
#412=DIRECTION('',(-1.,0.,0.));
#413=DIRECTION('',(0.,0.,1.));
#414=DIRECTION('',(1.,0.,0.));
#415=DIRECTION('',(0.,0.,1.));
#416=DIRECTION('',(1.,0.,0.));
#417=DIRECTION('',(0.,-1.,0.));
#418=DIRECTION('',(0.,0.,-1.));
#419=DIRECTION('',(-1.,0.,0.));
#420=DIRECTION('',(0.,0.,-1.));
#421=DIRECTION('',(-1.,0.,0.));
#422=DIRECTION('',(0.,0.,-1.));
#423=DIRECTION('',(1.,0.,0.));
#424=DIRECTION('',(0.,0.,-1.));
#425=DIRECTION('',(0.,-1.,0.));
#426=DIRECTION('',(0.,0.,-1.));
#427=DIRECTION('',(0.,-1.,0.));
#428=DIRECTION('',(0.,1.,0.));
#429=DIRECTION('',(0.,0.,1.));
#430=DIRECTION('',(1.,0.,0.));
#431=DIRECTION('',(0.,0.,-1.));
#432=DIRECTION('',(1.,0.,0.));
#433=DIRECTION('',(-1.,0.,0.));
#434=DIRECTION('',(0.,0.,1.));
#435=DIRECTION('',(0.,1.,0.));
#436=DIRECTION('',(0.,1.,0.));
#437=DIRECTION('',(0.,0.,1.));
#438=DIRECTION('',(1.,0.,0.));
#439=DIRECTION('',(0.,0.,1.));
#440=DIRECTION('',(1.,0.,0.));
#441=DIRECTION('',(0.,0.,1.));
#442=DIRECTION('',(1.,0.,0.));
#443=DIRECTION('',(1.,0.,0.));
#444=DIRECTION('',(0.,0.,-1.));
#445=DIRECTION('',(0.,1.,0.));
#446=DIRECTION('',(0.,0.,1.));
#447=DIRECTION('',(0.,1.,0.));
#448=DIRECTION('',(0.,0.,1.));
#449=DIRECTION('',(0.,-1.,0.));
#450=DIRECTION('',(0.,0.,-1.));
#451=DIRECTION('',(1.,0.,0.));
#452=DIRECTION('',(0.,0.,1.));
#453=DIRECTION('',(1.,0.,0.));
#454=DIRECTION('',(-1.,0.,0.));
#455=DIRECTION('',(0.,0.,1.));
#456=DIRECTION('',(0.,-1.,0.));
#457=DIRECTION('',(0.,0.,1.));
#458=DIRECTION('',(0.,-1.,0.));
#459=DIRECTION('',(0.,1.,0.));
#460=DIRECTION('',(0.,0.,1.));
#461=DIRECTION('',(-1.,0.,0.));
#462=DIRECTION('',(-1.,0.,0.));
#463=DIRECTION('',(0.,0.,-1.));
#464=DIRECTION('',(-1.,0.,0.));
#465=DIRECTION('',(0.,0.,-1.));
#466=DIRECTION('',(-1.,0.,0.));
#467=DIRECTION('',(0.,0.,1.));
#468=DIRECTION('',(1.,0.,0.));
#469=CARTESIAN_POINT('',(0.,0.,0.));
#470=CARTESIAN_POINT('',(-0.669999999999948,0.299999999999745,0.015));
#471=CARTESIAN_POINT('',(-0.669999999999948,0.299999999999745,0.));
#472=CARTESIAN_POINT('',(-0.67000000000017,0.299999999999745,0.));
#473=CARTESIAN_POINT('',(-0.46999999999997,0.299999999999745,0.));
#474=CARTESIAN_POINT('',(-0.67000000000017,0.299999999999745,0.015));
#475=CARTESIAN_POINT('',(-0.67000000000017,0.299999999999745,0.015));
#476=CARTESIAN_POINT('',(-0.669999999999948,0.299999999999745,0.015));
#477=CARTESIAN_POINT('',(-0.46999999999997,0.299999999999745,0.015));
#478=CARTESIAN_POINT('',(-0.46999999999997,0.299999999999745,0.015));
#479=CARTESIAN_POINT('',(-0.46999999999997,0.299999999999745,0.015));
#480=CARTESIAN_POINT('',(-0.46999999999997,0.299999999999745,0.));
#481=CARTESIAN_POINT('',(-0.46999999999997,-0.300000000000189,0.));
#482=CARTESIAN_POINT('',(-0.46999999999997,0.299999999999745,0.015));
#483=CARTESIAN_POINT('',(-0.46999999999997,-0.300000000000189,0.015));
#484=CARTESIAN_POINT('',(-0.46999999999997,-0.300000000000189,0.015));
#485=CARTESIAN_POINT('',(-0.46999999999997,-0.300000000000189,0.015));
#486=CARTESIAN_POINT('',(-0.46999999999997,-0.300000000000189,0.));
#487=CARTESIAN_POINT('',(-0.770000000000159,-0.300000000000189,0.));
#488=CARTESIAN_POINT('',(-0.46999999999997,-0.300000000000189,0.015));
#489=CARTESIAN_POINT('',(-0.770000000000159,-0.300000000000189,0.015));
#490=CARTESIAN_POINT('',(-0.770000000000159,-0.300000000000189,0.015));
#491=CARTESIAN_POINT('',(-0.770000000000159,-0.300000000000189,0.015));
#492=CARTESIAN_POINT('',(-0.770000000000159,-0.300000000000189,0.));
#493=CARTESIAN_POINT('',(-0.770000000000159,0.199999999999756,0.));
#494=CARTESIAN_POINT('',(-0.770000000000159,-0.300000000000189,0.015));
#495=CARTESIAN_POINT('',(-0.770000000000159,0.199999999999756,0.015));
#496=CARTESIAN_POINT('',(-0.770000000000159,0.199999999999756,0.015));
#497=CARTESIAN_POINT('',(-0.770000000000159,0.299999999999745,0.015));
#498=CARTESIAN_POINT('',(-0.770000000000159,0.299999999999745,0.));
#499=CARTESIAN_POINT('',(-0.770000000000159,0.299999999999745,0.015));
#500=CARTESIAN_POINT('',(-0.770000000000159,0.299999999999745,0.015));
#501=CARTESIAN_POINT('',(-0.770000000000159,0.299999999999745,0.));
#502=CARTESIAN_POINT('',(0.762000000000373,0.299999999999745,0.015));
#503=CARTESIAN_POINT('',(0.762000000000373,0.299999999999745,0.));
#504=CARTESIAN_POINT('',(0.762000000000373,0.299999999999745,0.));
#505=CARTESIAN_POINT('',(-0.187999999999633,0.299999999999745,0.));
#506=CARTESIAN_POINT('',(-0.187999999999633,0.299999999999745,0.015));
#507=CARTESIAN_POINT('',(-0.187999999999633,0.299999999999745,0.015));
#508=CARTESIAN_POINT('',(0.762000000000373,0.299999999999745,0.015));
#509=CARTESIAN_POINT('',(0.762000000000373,0.299999999999745,0.015));
#510=CARTESIAN_POINT('',(0.762000000000373,0.299999999999745,0.015));
#511=CARTESIAN_POINT('',(-0.187999999999633,0.299999999999745,0.015));
#512=CARTESIAN_POINT('',(-0.187999999999633,0.299999999999745,0.));
#513=CARTESIAN_POINT('',(-0.187999999999633,-0.300000000000189,0.));
#514=CARTESIAN_POINT('',(-0.187999999999633,-0.300000000000189,0.015));
#515=CARTESIAN_POINT('',(-0.187999999999633,-0.300000000000189,0.015));
#516=CARTESIAN_POINT('',(-0.187999999999633,0.299999999999745,0.015));
#517=CARTESIAN_POINT('',(-0.187999999999633,-0.300000000000189,0.015));
#518=CARTESIAN_POINT('',(-0.187999999999633,-0.300000000000189,0.));
#519=CARTESIAN_POINT('',(0.762000000000373,-0.300000000000189,0.));
#520=CARTESIAN_POINT('',(0.762000000000373,-0.300000000000189,0.015));
#521=CARTESIAN_POINT('',(0.762000000000373,-0.300000000000189,0.015));
#522=CARTESIAN_POINT('',(-0.187999999999633,-0.300000000000189,0.015));
#523=CARTESIAN_POINT('',(0.762000000000373,-0.300000000000189,0.015));
#524=CARTESIAN_POINT('',(0.762000000000373,-0.300000000000189,0.));
#525=CARTESIAN_POINT('',(0.762000000000373,-0.300000000000189,0.015));
#526=CARTESIAN_POINT('',(0.,0.,0.015));
#527=CARTESIAN_POINT('',(0.,0.,0.));
#528=CARTESIAN_POINT('',(0.,0.,0.));
#529=CARTESIAN_POINT('',(-0.800000000000356,-0.400000000000178,-0.26));
#530=CARTESIAN_POINT('',(-0.800000000000356,-0.400000000000178,0.));
#531=CARTESIAN_POINT('',(-0.800000000000356,-0.400000000000178,0.));
#532=CARTESIAN_POINT('',(-0.800000000000356,0.399999999999956,0.));
#533=CARTESIAN_POINT('',(-0.800000000000356,0.399999999999956,-0.26));
#534=CARTESIAN_POINT('',(-0.800000000000356,0.399999999999956,-0.26));
#535=CARTESIAN_POINT('',(-0.800000000000356,-0.400000000000178,-0.26));
#536=CARTESIAN_POINT('',(-0.800000000000356,-0.400000000000178,-0.26));
#537=CARTESIAN_POINT('',(-0.800000000000356,-0.400000000000178,-0.26));
#538=CARTESIAN_POINT('',(-0.800000000000356,0.399999999999956,-0.26));
#539=CARTESIAN_POINT('',(-0.800000000000356,0.399999999999956,0.));
#540=CARTESIAN_POINT('',(0.799999999999912,0.399999999999956,0.));
#541=CARTESIAN_POINT('',(0.799999999999912,0.399999999999956,-0.26));
#542=CARTESIAN_POINT('',(0.799999999999912,0.399999999999956,-0.26));
#543=CARTESIAN_POINT('',(-0.800000000000356,0.399999999999956,-0.26));
#544=CARTESIAN_POINT('',(0.799999999999912,0.399999999999956,-0.26));
#545=CARTESIAN_POINT('',(0.799999999999912,0.399999999999956,0.));
#546=CARTESIAN_POINT('',(0.799999999999912,-0.400000000000178,0.));
#547=CARTESIAN_POINT('',(0.799999999999912,-0.400000000000178,-0.26));
#548=CARTESIAN_POINT('',(0.799999999999912,-0.400000000000178,-0.26));
#549=CARTESIAN_POINT('',(0.799999999999912,0.399999999999956,-0.26));
#550=CARTESIAN_POINT('',(0.799999999999912,-0.400000000000178,-0.26));
#551=CARTESIAN_POINT('',(0.799999999999912,-0.400000000000178,0.));
#552=CARTESIAN_POINT('',(0.799999999999912,-0.400000000000178,-0.26));
#553=CARTESIAN_POINT('',(0.,0.,-0.26));
#554=CARTESIAN_POINT('',(0.,0.,0.));
#555=CARTESIAN_POINT('',(0.,0.,0.));
#556=MECHANICAL_DESIGN_GEOMETRIC_PRESENTATION_REPRESENTATION('',(#328,#329,
#330),#557);
#557=(
GEOMETRIC_REPRESENTATION_CONTEXT(3)
GLOBAL_UNCERTAINTY_ASSIGNED_CONTEXT((#560))
GLOBAL_UNIT_ASSIGNED_CONTEXT((#565,#564,#563))
REPRESENTATION_CONTEXT('X3-WLB1608-2','TOP_LEVEL_ASSEMBLY_PART')
);
#558=(
GEOMETRIC_REPRESENTATION_CONTEXT(3)
GLOBAL_UNCERTAINTY_ASSIGNED_CONTEXT((#561))
GLOBAL_UNIT_ASSIGNED_CONTEXT((#565,#564,#563))
REPRESENTATION_CONTEXT('Bump','COMPONENT_PART')
);
#559=(
GEOMETRIC_REPRESENTATION_CONTEXT(3)
GLOBAL_UNCERTAINTY_ASSIGNED_CONTEXT((#562))
GLOBAL_UNIT_ASSIGNED_CONTEXT((#565,#564,#563))
REPRESENTATION_CONTEXT('Chip','COMPONENT_PART')
);
#560=UNCERTAINTY_MEASURE_WITH_UNIT(LENGTH_MEASURE(0.005),#565,
'DISTANCE_ACCURACY_VALUE','Maximum Tolerance applied to model');
#561=UNCERTAINTY_MEASURE_WITH_UNIT(LENGTH_MEASURE(0.005),#565,
'DISTANCE_ACCURACY_VALUE','Maximum Tolerance applied to model');
#562=UNCERTAINTY_MEASURE_WITH_UNIT(LENGTH_MEASURE(0.005),#565,
'DISTANCE_ACCURACY_VALUE','Maximum Tolerance applied to model');
#563=(
NAMED_UNIT(*)
SI_UNIT($,.STERADIAN.)
SOLID_ANGLE_UNIT()
);
#564=(
NAMED_UNIT(*)
PLANE_ANGLE_UNIT()
SI_UNIT($,.RADIAN.)
);
#565=(
LENGTH_UNIT()
NAMED_UNIT(*)
SI_UNIT(.MILLI.,.METRE.)
);
#566=PRODUCT_DEFINITION_SHAPE('','',#571);
#567=PRODUCT_DEFINITION_SHAPE('','',#572);
#568=PRODUCT_DEFINITION_SHAPE(' ','NAUO PRDDFN',#20);
#569=PRODUCT_DEFINITION_SHAPE('','',#573);
#570=PRODUCT_DEFINITION_SHAPE(' ','NAUO PRDDFN',#21);
#571=PRODUCT_DEFINITION('','',#577,#574);
#572=PRODUCT_DEFINITION('','',#578,#575);
#573=PRODUCT_DEFINITION('','',#579,#576);
#574=PRODUCT_DEFINITION_CONTEXT('',#593,'design');
#575=PRODUCT_DEFINITION_CONTEXT('',#593,'design');
#576=PRODUCT_DEFINITION_CONTEXT('',#593,'design');
#577=PRODUCT_DEFINITION_FORMATION_WITH_SPECIFIED_SOURCE('','',#583,
 .NOT_KNOWN.);
#578=PRODUCT_DEFINITION_FORMATION_WITH_SPECIFIED_SOURCE('','',#584,
 .NOT_KNOWN.);
#579=PRODUCT_DEFINITION_FORMATION_WITH_SPECIFIED_SOURCE('','',#585,
 .NOT_KNOWN.);
#580=PRODUCT_RELATED_PRODUCT_CATEGORY('','',(#583));
#581=PRODUCT_RELATED_PRODUCT_CATEGORY('','',(#584));
#582=PRODUCT_RELATED_PRODUCT_CATEGORY('','',(#585));
#583=PRODUCT('X3-WLB1608-2','X3-WLB1608-2','X3-WLB1608-2',(#589));
#584=PRODUCT('Bump','Bump','Bump',(#590));
#585=PRODUCT('Chip','Chip','Chip',(#591));
#586=PRODUCT_CATEGORY('','');
#587=PRODUCT_CATEGORY('','');
#588=PRODUCT_CATEGORY('','');
#589=PRODUCT_CONTEXT('',#593,'mechanical');
#590=PRODUCT_CONTEXT('',#593,'mechanical');
#591=PRODUCT_CONTEXT('',#593,'mechanical');
#592=APPLICATION_PROTOCOL_DEFINITION('international standard',
'automotive_design',2010,#593);
#593=APPLICATION_CONTEXT(
'core data for automotive mechanical design processes');
ENDSEC;
END-ISO-10303-21;
