ISO-10303-21;
HEADER;
/* Generated by software containing ST-Developer
 * from STEP Tools, Inc. (www.steptools.com) 
 */
/* OPTION: strings as raw bytes, not using required /X/ escapes */

FILE_DESCRIPTION(
/* description */ ('Unknown'),
/* implementation_level */ '2;1');

FILE_NAME(
/* name */ 'X3-DSN0603-2_Type-B',
/* time_stamp */ '2021-07-30T10:51:32+08:00',
/* author */ ('Unknown'),
/* organization */ ('Unknown'),
/* preprocessor_version */ 'ST-DEVELOPER v16.7',
/* originating_system */ 'DEX',
/* authorisation */ $);

FILE_SCHEMA (('AUTOMOTIVE_DESIGN {1 0 10303 214 3 1 1}'));
ENDSEC;

DATA;
#10=PROPERTY_DEFINITION_REPRESENTATION(#14,#12);
#11=PROPERTY_DEFINITION_REPRESENTATION(#15,#13);
#12=REPRESENTATION('',(#16),#522);
#13=REPRESENTATION('',(#17),#522);
#14=PROPERTY_DEFINITION('pmi validation property','',#531);
#15=PROPERTY_DEFINITION('pmi validation property','',#531);
#16=VALUE_REPRESENTATION_ITEM('number of annotations',COUNT_MEASURE(0.));
#17=VALUE_REPRESENTATION_ITEM('number of views',COUNT_MEASURE(0.));
#18=CONTEXT_DEPENDENT_SHAPE_REPRESENTATION(#22,#533);
#19=CONTEXT_DEPENDENT_SHAPE_REPRESENTATION(#23,#535);
#20=NEXT_ASSEMBLY_USAGE_OCCURRENCE('MD','MD','MD',#536,#537,'');
#21=NEXT_ASSEMBLY_USAGE_OCCURRENCE('LDF','LDF','LDF',#536,#538,'');
#22=(
REPRESENTATION_RELATIONSHIP(' ',' ',#338,#339)
REPRESENTATION_RELATIONSHIP_WITH_TRANSFORMATION(#24)
SHAPE_REPRESENTATION_RELATIONSHIP()
);
#23=(
REPRESENTATION_RELATIONSHIP(' ',' ',#340,#339)
REPRESENTATION_RELATIONSHIP_WITH_TRANSFORMATION(#25)
SHAPE_REPRESENTATION_RELATIONSHIP()
);
#24=ITEM_DEFINED_TRANSFORMATION(' ',' ',#341,#348);
#25=ITEM_DEFINED_TRANSFORMATION(' ',' ',#341,#361);
#26=SHAPE_REPRESENTATION_RELATIONSHIP('','',#338,#28);
#27=SHAPE_REPRESENTATION_RELATIONSHIP('','',#340,#29);
#28=ADVANCED_BREP_SHAPE_REPRESENTATION('',(#332),#523);
#29=ADVANCED_BREP_SHAPE_REPRESENTATION('',(#333,#334),#524);
#30=ORIENTED_EDGE('',*,*,#102,.F.);
#31=ORIENTED_EDGE('',*,*,#103,.F.);
#32=ORIENTED_EDGE('',*,*,#104,.T.);
#33=ORIENTED_EDGE('',*,*,#105,.T.);
#34=ORIENTED_EDGE('',*,*,#106,.F.);
#35=ORIENTED_EDGE('',*,*,#105,.F.);
#36=ORIENTED_EDGE('',*,*,#107,.T.);
#37=ORIENTED_EDGE('',*,*,#108,.T.);
#38=ORIENTED_EDGE('',*,*,#109,.F.);
#39=ORIENTED_EDGE('',*,*,#108,.F.);
#40=ORIENTED_EDGE('',*,*,#110,.T.);
#41=ORIENTED_EDGE('',*,*,#111,.T.);
#42=ORIENTED_EDGE('',*,*,#112,.F.);
#43=ORIENTED_EDGE('',*,*,#111,.F.);
#44=ORIENTED_EDGE('',*,*,#113,.T.);
#45=ORIENTED_EDGE('',*,*,#103,.T.);
#46=ORIENTED_EDGE('',*,*,#104,.F.);
#47=ORIENTED_EDGE('',*,*,#113,.F.);
#48=ORIENTED_EDGE('',*,*,#110,.F.);
#49=ORIENTED_EDGE('',*,*,#107,.F.);
#50=ORIENTED_EDGE('',*,*,#102,.T.);
#51=ORIENTED_EDGE('',*,*,#106,.T.);
#52=ORIENTED_EDGE('',*,*,#109,.T.);
#53=ORIENTED_EDGE('',*,*,#112,.T.);
#54=ORIENTED_EDGE('',*,*,#114,.T.);
#55=ORIENTED_EDGE('',*,*,#115,.F.);
#56=ORIENTED_EDGE('',*,*,#116,.F.);
#57=ORIENTED_EDGE('',*,*,#117,.T.);
#58=ORIENTED_EDGE('',*,*,#118,.T.);
#59=ORIENTED_EDGE('',*,*,#119,.F.);
#60=ORIENTED_EDGE('',*,*,#120,.F.);
#61=ORIENTED_EDGE('',*,*,#115,.T.);
#62=ORIENTED_EDGE('',*,*,#121,.T.);
#63=ORIENTED_EDGE('',*,*,#122,.F.);
#64=ORIENTED_EDGE('',*,*,#123,.F.);
#65=ORIENTED_EDGE('',*,*,#119,.T.);
#66=ORIENTED_EDGE('',*,*,#124,.T.);
#67=ORIENTED_EDGE('',*,*,#117,.F.);
#68=ORIENTED_EDGE('',*,*,#125,.F.);
#69=ORIENTED_EDGE('',*,*,#122,.T.);
#70=ORIENTED_EDGE('',*,*,#116,.T.);
#71=ORIENTED_EDGE('',*,*,#120,.T.);
#72=ORIENTED_EDGE('',*,*,#123,.T.);
#73=ORIENTED_EDGE('',*,*,#125,.T.);
#74=ORIENTED_EDGE('',*,*,#114,.F.);
#75=ORIENTED_EDGE('',*,*,#124,.F.);
#76=ORIENTED_EDGE('',*,*,#121,.F.);
#77=ORIENTED_EDGE('',*,*,#118,.F.);
#78=ORIENTED_EDGE('',*,*,#126,.T.);
#79=ORIENTED_EDGE('',*,*,#127,.F.);
#80=ORIENTED_EDGE('',*,*,#128,.F.);
#81=ORIENTED_EDGE('',*,*,#129,.T.);
#82=ORIENTED_EDGE('',*,*,#130,.T.);
#83=ORIENTED_EDGE('',*,*,#131,.F.);
#84=ORIENTED_EDGE('',*,*,#132,.F.);
#85=ORIENTED_EDGE('',*,*,#127,.T.);
#86=ORIENTED_EDGE('',*,*,#133,.T.);
#87=ORIENTED_EDGE('',*,*,#134,.F.);
#88=ORIENTED_EDGE('',*,*,#135,.F.);
#89=ORIENTED_EDGE('',*,*,#131,.T.);
#90=ORIENTED_EDGE('',*,*,#136,.T.);
#91=ORIENTED_EDGE('',*,*,#129,.F.);
#92=ORIENTED_EDGE('',*,*,#137,.F.);
#93=ORIENTED_EDGE('',*,*,#134,.T.);
#94=ORIENTED_EDGE('',*,*,#128,.T.);
#95=ORIENTED_EDGE('',*,*,#132,.T.);
#96=ORIENTED_EDGE('',*,*,#135,.T.);
#97=ORIENTED_EDGE('',*,*,#137,.T.);
#98=ORIENTED_EDGE('',*,*,#126,.F.);
#99=ORIENTED_EDGE('',*,*,#136,.F.);
#100=ORIENTED_EDGE('',*,*,#133,.F.);
#101=ORIENTED_EDGE('',*,*,#130,.F.);
#102=EDGE_CURVE('',#138,#139,#162,.T.);
#103=EDGE_CURVE('',#140,#138,#163,.T.);
#104=EDGE_CURVE('',#140,#141,#164,.T.);
#105=EDGE_CURVE('',#141,#139,#165,.T.);
#106=EDGE_CURVE('',#139,#142,#166,.T.);
#107=EDGE_CURVE('',#141,#143,#167,.T.);
#108=EDGE_CURVE('',#143,#142,#168,.T.);
#109=EDGE_CURVE('',#142,#144,#169,.T.);
#110=EDGE_CURVE('',#143,#145,#170,.T.);
#111=EDGE_CURVE('',#145,#144,#171,.T.);
#112=EDGE_CURVE('',#144,#138,#172,.T.);
#113=EDGE_CURVE('',#145,#140,#173,.T.);
#114=EDGE_CURVE('',#146,#147,#174,.T.);
#115=EDGE_CURVE('',#148,#147,#175,.T.);
#116=EDGE_CURVE('',#149,#148,#176,.T.);
#117=EDGE_CURVE('',#149,#146,#177,.T.);
#118=EDGE_CURVE('',#147,#150,#178,.T.);
#119=EDGE_CURVE('',#151,#150,#179,.T.);
#120=EDGE_CURVE('',#148,#151,#180,.T.);
#121=EDGE_CURVE('',#150,#152,#181,.T.);
#122=EDGE_CURVE('',#153,#152,#182,.T.);
#123=EDGE_CURVE('',#151,#153,#183,.T.);
#124=EDGE_CURVE('',#152,#146,#184,.T.);
#125=EDGE_CURVE('',#153,#149,#185,.T.);
#126=EDGE_CURVE('',#154,#155,#186,.T.);
#127=EDGE_CURVE('',#156,#155,#187,.T.);
#128=EDGE_CURVE('',#157,#156,#188,.T.);
#129=EDGE_CURVE('',#157,#154,#189,.T.);
#130=EDGE_CURVE('',#155,#158,#190,.T.);
#131=EDGE_CURVE('',#159,#158,#191,.T.);
#132=EDGE_CURVE('',#156,#159,#192,.T.);
#133=EDGE_CURVE('',#158,#160,#193,.T.);
#134=EDGE_CURVE('',#161,#160,#194,.T.);
#135=EDGE_CURVE('',#159,#161,#195,.T.);
#136=EDGE_CURVE('',#160,#154,#196,.T.);
#137=EDGE_CURVE('',#161,#157,#197,.T.);
#138=VERTEX_POINT('',#443);
#139=VERTEX_POINT('',#444);
#140=VERTEX_POINT('',#446);
#141=VERTEX_POINT('',#448);
#142=VERTEX_POINT('',#452);
#143=VERTEX_POINT('',#454);
#144=VERTEX_POINT('',#458);
#145=VERTEX_POINT('',#460);
#146=VERTEX_POINT('',#470);
#147=VERTEX_POINT('',#471);
#148=VERTEX_POINT('',#473);
#149=VERTEX_POINT('',#475);
#150=VERTEX_POINT('',#479);
#151=VERTEX_POINT('',#481);
#152=VERTEX_POINT('',#485);
#153=VERTEX_POINT('',#487);
#154=VERTEX_POINT('',#496);
#155=VERTEX_POINT('',#497);
#156=VERTEX_POINT('',#499);
#157=VERTEX_POINT('',#501);
#158=VERTEX_POINT('',#505);
#159=VERTEX_POINT('',#507);
#160=VERTEX_POINT('',#511);
#161=VERTEX_POINT('',#513);
#162=LINE('',#442,#198);
#163=LINE('',#445,#199);
#164=LINE('',#447,#200);
#165=LINE('',#449,#201);
#166=LINE('',#451,#202);
#167=LINE('',#453,#203);
#168=LINE('',#455,#204);
#169=LINE('',#457,#205);
#170=LINE('',#459,#206);
#171=LINE('',#461,#207);
#172=LINE('',#463,#208);
#173=LINE('',#464,#209);
#174=LINE('',#469,#210);
#175=LINE('',#472,#211);
#176=LINE('',#474,#212);
#177=LINE('',#476,#213);
#178=LINE('',#478,#214);
#179=LINE('',#480,#215);
#180=LINE('',#482,#216);
#181=LINE('',#484,#217);
#182=LINE('',#486,#218);
#183=LINE('',#488,#219);
#184=LINE('',#490,#220);
#185=LINE('',#491,#221);
#186=LINE('',#495,#222);
#187=LINE('',#498,#223);
#188=LINE('',#500,#224);
#189=LINE('',#502,#225);
#190=LINE('',#504,#226);
#191=LINE('',#506,#227);
#192=LINE('',#508,#228);
#193=LINE('',#510,#229);
#194=LINE('',#512,#230);
#195=LINE('',#514,#231);
#196=LINE('',#516,#232);
#197=LINE('',#517,#233);
#198=VECTOR('',#366,1000.);
#199=VECTOR('',#367,1000.);
#200=VECTOR('',#368,1000.);
#201=VECTOR('',#369,1000.);
#202=VECTOR('',#372,1000.);
#203=VECTOR('',#373,1000.);
#204=VECTOR('',#374,1000.);
#205=VECTOR('',#377,1000.);
#206=VECTOR('',#378,1000.);
#207=VECTOR('',#379,1000.);
#208=VECTOR('',#382,1000.);
#209=VECTOR('',#383,1000.);
#210=VECTOR('',#392,1000.);
#211=VECTOR('',#393,1000.);
#212=VECTOR('',#394,1000.);
#213=VECTOR('',#395,1000.);
#214=VECTOR('',#398,1000.);
#215=VECTOR('',#399,1000.);
#216=VECTOR('',#400,1000.);
#217=VECTOR('',#403,1000.);
#218=VECTOR('',#404,1000.);
#219=VECTOR('',#405,1000.);
#220=VECTOR('',#408,1000.);
#221=VECTOR('',#409,1000.);
#222=VECTOR('',#416,1000.);
#223=VECTOR('',#417,1000.);
#224=VECTOR('',#418,1000.);
#225=VECTOR('',#419,1000.);
#226=VECTOR('',#422,1000.);
#227=VECTOR('',#423,1000.);
#228=VECTOR('',#424,1000.);
#229=VECTOR('',#427,1000.);
#230=VECTOR('',#428,1000.);
#231=VECTOR('',#429,1000.);
#232=VECTOR('',#432,1000.);
#233=VECTOR('',#433,1000.);
#234=EDGE_LOOP('',(#30,#31,#32,#33));
#235=EDGE_LOOP('',(#34,#35,#36,#37));
#236=EDGE_LOOP('',(#38,#39,#40,#41));
#237=EDGE_LOOP('',(#42,#43,#44,#45));
#238=EDGE_LOOP('',(#46,#47,#48,#49));
#239=EDGE_LOOP('',(#50,#51,#52,#53));
#240=EDGE_LOOP('',(#54,#55,#56,#57));
#241=EDGE_LOOP('',(#58,#59,#60,#61));
#242=EDGE_LOOP('',(#62,#63,#64,#65));
#243=EDGE_LOOP('',(#66,#67,#68,#69));
#244=EDGE_LOOP('',(#70,#71,#72,#73));
#245=EDGE_LOOP('',(#74,#75,#76,#77));
#246=EDGE_LOOP('',(#78,#79,#80,#81));
#247=EDGE_LOOP('',(#82,#83,#84,#85));
#248=EDGE_LOOP('',(#86,#87,#88,#89));
#249=EDGE_LOOP('',(#90,#91,#92,#93));
#250=EDGE_LOOP('',(#94,#95,#96,#97));
#251=EDGE_LOOP('',(#98,#99,#100,#101));
#252=FACE_BOUND('',#234,.T.);
#253=FACE_BOUND('',#235,.T.);
#254=FACE_BOUND('',#236,.T.);
#255=FACE_BOUND('',#237,.T.);
#256=FACE_BOUND('',#238,.T.);
#257=FACE_BOUND('',#239,.T.);
#258=FACE_BOUND('',#240,.T.);
#259=FACE_BOUND('',#241,.T.);
#260=FACE_BOUND('',#242,.T.);
#261=FACE_BOUND('',#243,.T.);
#262=FACE_BOUND('',#244,.T.);
#263=FACE_BOUND('',#245,.T.);
#264=FACE_BOUND('',#246,.T.);
#265=FACE_BOUND('',#247,.T.);
#266=FACE_BOUND('',#248,.T.);
#267=FACE_BOUND('',#249,.T.);
#268=FACE_BOUND('',#250,.T.);
#269=FACE_BOUND('',#251,.T.);
#270=PLANE('',#342);
#271=PLANE('',#343);
#272=PLANE('',#344);
#273=PLANE('',#345);
#274=PLANE('',#346);
#275=PLANE('',#347);
#276=PLANE('',#349);
#277=PLANE('',#350);
#278=PLANE('',#351);
#279=PLANE('',#352);
#280=PLANE('',#353);
#281=PLANE('',#354);
#282=PLANE('',#355);
#283=PLANE('',#356);
#284=PLANE('',#357);
#285=PLANE('',#358);
#286=PLANE('',#359);
#287=PLANE('',#360);
#288=ADVANCED_FACE('',(#252),#270,.T.);
#289=ADVANCED_FACE('',(#253),#271,.T.);
#290=ADVANCED_FACE('',(#254),#272,.T.);
#291=ADVANCED_FACE('',(#255),#273,.T.);
#292=ADVANCED_FACE('',(#256),#274,.F.);
#293=ADVANCED_FACE('',(#257),#275,.T.);
#294=ADVANCED_FACE('',(#258),#276,.F.);
#295=ADVANCED_FACE('',(#259),#277,.F.);
#296=ADVANCED_FACE('',(#260),#278,.F.);
#297=ADVANCED_FACE('',(#261),#279,.F.);
#298=ADVANCED_FACE('',(#262),#280,.T.);
#299=ADVANCED_FACE('',(#263),#281,.F.);
#300=ADVANCED_FACE('',(#264),#282,.F.);
#301=ADVANCED_FACE('',(#265),#283,.F.);
#302=ADVANCED_FACE('',(#266),#284,.F.);
#303=ADVANCED_FACE('',(#267),#285,.F.);
#304=ADVANCED_FACE('',(#268),#286,.T.);
#305=ADVANCED_FACE('',(#269),#287,.F.);
#306=CLOSED_SHELL('',(#288,#289,#290,#291,#292,#293));
#307=CLOSED_SHELL('',(#294,#295,#296,#297,#298,#299));
#308=CLOSED_SHELL('',(#300,#301,#302,#303,#304,#305));
#309=STYLED_ITEM('',(#312),#332);
#310=STYLED_ITEM('',(#313),#333);
#311=STYLED_ITEM('',(#314),#334);
#312=PRESENTATION_STYLE_ASSIGNMENT((#315));
#313=PRESENTATION_STYLE_ASSIGNMENT((#316));
#314=PRESENTATION_STYLE_ASSIGNMENT((#317));
#315=SURFACE_STYLE_USAGE(.BOTH.,#318);
#316=SURFACE_STYLE_USAGE(.BOTH.,#319);
#317=SURFACE_STYLE_USAGE(.BOTH.,#320);
#318=SURFACE_SIDE_STYLE('',(#321));
#319=SURFACE_SIDE_STYLE('',(#322));
#320=SURFACE_SIDE_STYLE('',(#323));
#321=SURFACE_STYLE_FILL_AREA(#324);
#322=SURFACE_STYLE_FILL_AREA(#325);
#323=SURFACE_STYLE_FILL_AREA(#326);
#324=FILL_AREA_STYLE('',(#327));
#325=FILL_AREA_STYLE('',(#328));
#326=FILL_AREA_STYLE('',(#329));
#327=FILL_AREA_STYLE_COLOUR('',#330);
#328=FILL_AREA_STYLE_COLOUR('',#331);
#329=FILL_AREA_STYLE_COLOUR('',#331);
#330=COLOUR_RGB('',0.200000002980232,0.200000002980232,0.200000002980232);
#331=COLOUR_RGB('',0.506983280181885,0.531564235687256,0.550000011920929);
#332=MANIFOLD_SOLID_BREP('',#306);
#333=MANIFOLD_SOLID_BREP('',#307);
#334=MANIFOLD_SOLID_BREP('',#308);
#335=SHAPE_DEFINITION_REPRESENTATION(#532,#338);
#336=SHAPE_DEFINITION_REPRESENTATION(#531,#339);
#337=SHAPE_DEFINITION_REPRESENTATION(#534,#340);
#338=SHAPE_REPRESENTATION('MD',(#341),#523);
#339=SHAPE_REPRESENTATION('X3-DSN0603-2_Type-B',(#341,#348,#361),#522);
#340=SHAPE_REPRESENTATION('LDF',(#341),#524);
#341=AXIS2_PLACEMENT_3D('',#440,#362,#363);
#342=AXIS2_PLACEMENT_3D('',#441,#364,#365);
#343=AXIS2_PLACEMENT_3D('',#450,#370,#371);
#344=AXIS2_PLACEMENT_3D('',#456,#375,#376);
#345=AXIS2_PLACEMENT_3D('',#462,#380,#381);
#346=AXIS2_PLACEMENT_3D('',#465,#384,#385);
#347=AXIS2_PLACEMENT_3D('',#466,#386,#387);
#348=AXIS2_PLACEMENT_3D('',#467,#388,#389);
#349=AXIS2_PLACEMENT_3D('',#468,#390,#391);
#350=AXIS2_PLACEMENT_3D('',#477,#396,#397);
#351=AXIS2_PLACEMENT_3D('',#483,#401,#402);
#352=AXIS2_PLACEMENT_3D('',#489,#406,#407);
#353=AXIS2_PLACEMENT_3D('',#492,#410,#411);
#354=AXIS2_PLACEMENT_3D('',#493,#412,#413);
#355=AXIS2_PLACEMENT_3D('',#494,#414,#415);
#356=AXIS2_PLACEMENT_3D('',#503,#420,#421);
#357=AXIS2_PLACEMENT_3D('',#509,#425,#426);
#358=AXIS2_PLACEMENT_3D('',#515,#430,#431);
#359=AXIS2_PLACEMENT_3D('',#518,#434,#435);
#360=AXIS2_PLACEMENT_3D('',#519,#436,#437);
#361=AXIS2_PLACEMENT_3D('',#520,#438,#439);
#362=DIRECTION('',(0.,0.,1.));
#363=DIRECTION('',(1.,0.,0.));
#364=DIRECTION('',(-1.,0.,0.));
#365=DIRECTION('',(0.,0.,1.));
#366=DIRECTION('',(0.,1.,0.));
#367=DIRECTION('',(0.,0.,-1.));
#368=DIRECTION('',(0.,1.,0.));
#369=DIRECTION('',(0.,0.,-1.));
#370=DIRECTION('',(0.,1.,0.));
#371=DIRECTION('',(0.,0.,1.));
#372=DIRECTION('',(1.,0.,0.));
#373=DIRECTION('',(1.,0.,0.));
#374=DIRECTION('',(0.,0.,-1.));
#375=DIRECTION('',(1.,0.,0.));
#376=DIRECTION('',(0.,0.,-1.));
#377=DIRECTION('',(0.,-1.,0.));
#378=DIRECTION('',(0.,-1.,0.));
#379=DIRECTION('',(0.,0.,-1.));
#380=DIRECTION('',(0.,-1.,0.));
#381=DIRECTION('',(0.,0.,-1.));
#382=DIRECTION('',(-1.,0.,0.));
#383=DIRECTION('',(-1.,0.,0.));
#384=DIRECTION('',(0.,0.,-1.));
#385=DIRECTION('',(-1.,0.,0.));
#386=DIRECTION('',(0.,0.,-1.));
#387=DIRECTION('',(-1.,0.,0.));
#388=DIRECTION('',(0.,0.,1.));
#389=DIRECTION('',(1.,0.,0.));
#390=DIRECTION('',(0.,-1.,0.));
#391=DIRECTION('',(0.,0.,-1.));
#392=DIRECTION('',(1.,0.,0.));
#393=DIRECTION('',(0.,0.,1.));
#394=DIRECTION('',(1.,0.,0.));
#395=DIRECTION('',(0.,0.,1.));
#396=DIRECTION('',(-1.,0.,0.));
#397=DIRECTION('',(0.,0.,1.));
#398=DIRECTION('',(0.,-1.,0.));
#399=DIRECTION('',(0.,0.,1.));
#400=DIRECTION('',(0.,-1.,0.));
#401=DIRECTION('',(0.,1.,0.));
#402=DIRECTION('',(0.,0.,1.));
#403=DIRECTION('',(-1.,0.,0.));
#404=DIRECTION('',(0.,0.,1.));
#405=DIRECTION('',(-1.,0.,0.));
#406=DIRECTION('',(1.,0.,0.));
#407=DIRECTION('',(0.,0.,-1.));
#408=DIRECTION('',(0.,1.,0.));
#409=DIRECTION('',(0.,1.,0.));
#410=DIRECTION('',(0.,0.,-1.));
#411=DIRECTION('',(-1.,0.,0.));
#412=DIRECTION('',(0.,0.,-1.));
#413=DIRECTION('',(-1.,0.,0.));
#414=DIRECTION('',(0.,1.,0.));
#415=DIRECTION('',(0.,0.,1.));
#416=DIRECTION('',(-1.,0.,0.));
#417=DIRECTION('',(0.,0.,1.));
#418=DIRECTION('',(-1.,0.,0.));
#419=DIRECTION('',(0.,0.,1.));
#420=DIRECTION('',(1.,0.,0.));
#421=DIRECTION('',(0.,0.,-1.));
#422=DIRECTION('',(0.,1.,0.));
#423=DIRECTION('',(0.,0.,1.));
#424=DIRECTION('',(0.,1.,0.));
#425=DIRECTION('',(0.,-1.,0.));
#426=DIRECTION('',(0.,0.,-1.));
#427=DIRECTION('',(1.,0.,0.));
#428=DIRECTION('',(0.,0.,1.));
#429=DIRECTION('',(1.,0.,0.));
#430=DIRECTION('',(-1.,0.,0.));
#431=DIRECTION('',(0.,0.,1.));
#432=DIRECTION('',(0.,-1.,0.));
#433=DIRECTION('',(0.,-1.,0.));
#434=DIRECTION('',(0.,0.,-1.));
#435=DIRECTION('',(-1.,0.,0.));
#436=DIRECTION('',(0.,0.,-1.));
#437=DIRECTION('',(-1.,0.,0.));
#438=DIRECTION('',(0.,0.,1.));
#439=DIRECTION('',(1.,0.,0.));
#440=CARTESIAN_POINT('',(0.,0.,0.));
#441=CARTESIAN_POINT('',(-0.299999999999953,-0.149999999999983,0.23));
#442=CARTESIAN_POINT('',(-0.299999999999953,-0.149999999999983,0.));
#443=CARTESIAN_POINT('',(-0.299999999999953,-0.149999999999983,0.));
#444=CARTESIAN_POINT('',(-0.299999999999953,0.149999999999983,0.));
#445=CARTESIAN_POINT('',(-0.299999999999953,-0.149999999999983,0.23));
#446=CARTESIAN_POINT('',(-0.299999999999953,-0.149999999999983,0.23));
#447=CARTESIAN_POINT('',(-0.299999999999953,-0.149999999999983,0.23));
#448=CARTESIAN_POINT('',(-0.299999999999953,0.149999999999983,0.23));
#449=CARTESIAN_POINT('',(-0.299999999999953,0.149999999999983,0.23));
#450=CARTESIAN_POINT('',(-0.299999999999953,0.149999999999983,0.23));
#451=CARTESIAN_POINT('',(-0.299999999999953,0.149999999999983,0.));
#452=CARTESIAN_POINT('',(0.299999999999953,0.149999999999983,0.));
#453=CARTESIAN_POINT('',(-0.299999999999953,0.149999999999983,0.23));
#454=CARTESIAN_POINT('',(0.299999999999953,0.149999999999983,0.23));
#455=CARTESIAN_POINT('',(0.299999999999953,0.149999999999983,0.23));
#456=CARTESIAN_POINT('',(0.299999999999953,0.149999999999983,0.23));
#457=CARTESIAN_POINT('',(0.299999999999953,0.149999999999983,0.));
#458=CARTESIAN_POINT('',(0.299999999999953,-0.149999999999983,0.));
#459=CARTESIAN_POINT('',(0.299999999999953,0.149999999999983,0.23));
#460=CARTESIAN_POINT('',(0.299999999999953,-0.149999999999983,0.23));
#461=CARTESIAN_POINT('',(0.299999999999953,-0.149999999999983,0.23));
#462=CARTESIAN_POINT('',(0.299999999999953,-0.149999999999983,0.23));
#463=CARTESIAN_POINT('',(0.299999999999953,-0.149999999999983,0.));
#464=CARTESIAN_POINT('',(0.299999999999953,-0.149999999999983,0.23));
#465=CARTESIAN_POINT('',(0.,0.,0.23));
#466=CARTESIAN_POINT('',(0.,0.,0.));
#467=CARTESIAN_POINT('',(0.,0.,0.));
#468=CARTESIAN_POINT('',(-0.277000000000277,0.110500000000124,-0.02));
#469=CARTESIAN_POINT('',(-0.277000000000277,0.110500000000124,0.));
#470=CARTESIAN_POINT('',(-0.277000000000277,0.110500000000124,0.));
#471=CARTESIAN_POINT('',(-0.122999999999374,0.110500000000124,0.));
#472=CARTESIAN_POINT('',(-0.122999999999374,0.110500000000124,-0.02));
#473=CARTESIAN_POINT('',(-0.122999999999374,0.110500000000124,-0.02));
#474=CARTESIAN_POINT('',(-0.277000000000277,0.110500000000124,-0.02));
#475=CARTESIAN_POINT('',(-0.277000000000277,0.110500000000124,-0.02));
#476=CARTESIAN_POINT('',(-0.277000000000277,0.110500000000124,-0.02));
#477=CARTESIAN_POINT('',(-0.122999999999374,0.110500000000124,-0.02));
#478=CARTESIAN_POINT('',(-0.122999999999374,0.110500000000124,0.));
#479=CARTESIAN_POINT('',(-0.122999999999374,-0.110500000000013,0.));
#480=CARTESIAN_POINT('',(-0.122999999999374,-0.110500000000013,-0.02));
#481=CARTESIAN_POINT('',(-0.122999999999374,-0.110500000000013,-0.02));
#482=CARTESIAN_POINT('',(-0.122999999999374,0.110500000000124,-0.02));
#483=CARTESIAN_POINT('',(-0.122999999999374,-0.110500000000013,-0.02));
#484=CARTESIAN_POINT('',(-0.122999999999374,-0.110500000000013,0.));
#485=CARTESIAN_POINT('',(-0.277000000000277,-0.110500000000013,0.));
#486=CARTESIAN_POINT('',(-0.277000000000277,-0.110500000000013,-0.02));
#487=CARTESIAN_POINT('',(-0.277000000000277,-0.110500000000013,-0.02));
#488=CARTESIAN_POINT('',(-0.122999999999374,-0.110500000000013,-0.02));
#489=CARTESIAN_POINT('',(-0.277000000000277,-0.110500000000013,-0.02));
#490=CARTESIAN_POINT('',(-0.277000000000277,-0.110500000000013,0.));
#491=CARTESIAN_POINT('',(-0.277000000000277,-0.110500000000013,-0.02));
#492=CARTESIAN_POINT('',(0.,0.,-0.02));
#493=CARTESIAN_POINT('',(0.,0.,0.));
#494=CARTESIAN_POINT('',(0.268000000000254,-0.120499999999968,-0.02));
#495=CARTESIAN_POINT('',(0.268000000000254,-0.120499999999968,0.));
#496=CARTESIAN_POINT('',(0.268000000000254,-0.120499999999968,0.));
#497=CARTESIAN_POINT('',(0.131999999999369,-0.120499999999968,0.));
#498=CARTESIAN_POINT('',(0.131999999999369,-0.120499999999968,-0.02));
#499=CARTESIAN_POINT('',(0.131999999999369,-0.120499999999968,-0.02));
#500=CARTESIAN_POINT('',(0.268000000000254,-0.120499999999968,-0.02));
#501=CARTESIAN_POINT('',(0.268000000000254,-0.120499999999968,-0.02));
#502=CARTESIAN_POINT('',(0.268000000000254,-0.120499999999968,-0.02));
#503=CARTESIAN_POINT('',(0.131999999999369,-0.120499999999968,-0.02));
#504=CARTESIAN_POINT('',(0.131999999999369,-0.120499999999968,0.));
#505=CARTESIAN_POINT('',(0.131999999999369,0.120500000000079,0.));
#506=CARTESIAN_POINT('',(0.131999999999369,0.120500000000079,-0.02));
#507=CARTESIAN_POINT('',(0.131999999999369,0.120500000000079,-0.02));
#508=CARTESIAN_POINT('',(0.131999999999369,-0.120499999999968,-0.02));
#509=CARTESIAN_POINT('',(0.131999999999369,0.120500000000079,-0.02));
#510=CARTESIAN_POINT('',(0.131999999999369,0.120500000000079,0.));
#511=CARTESIAN_POINT('',(0.268000000000254,0.120500000000079,0.));
#512=CARTESIAN_POINT('',(0.268000000000254,0.120500000000079,-0.02));
#513=CARTESIAN_POINT('',(0.268000000000254,0.120500000000079,-0.02));
#514=CARTESIAN_POINT('',(0.131999999999369,0.120500000000079,-0.02));
#515=CARTESIAN_POINT('',(0.268000000000254,0.120500000000079,-0.02));
#516=CARTESIAN_POINT('',(0.268000000000254,0.120500000000079,0.));
#517=CARTESIAN_POINT('',(0.268000000000254,0.120500000000079,-0.02));
#518=CARTESIAN_POINT('',(0.,0.,-0.02));
#519=CARTESIAN_POINT('',(0.,0.,0.));
#520=CARTESIAN_POINT('',(0.,0.,0.));
#521=MECHANICAL_DESIGN_GEOMETRIC_PRESENTATION_REPRESENTATION('',(#309,#310,
#311),#522);
#522=(
GEOMETRIC_REPRESENTATION_CONTEXT(3)
GLOBAL_UNCERTAINTY_ASSIGNED_CONTEXT((#525))
GLOBAL_UNIT_ASSIGNED_CONTEXT((#530,#529,#528))
REPRESENTATION_CONTEXT('X3-DSN0603-2_Type-B','TOP_LEVEL_ASSEMBLY_PART')
);
#523=(
GEOMETRIC_REPRESENTATION_CONTEXT(3)
GLOBAL_UNCERTAINTY_ASSIGNED_CONTEXT((#526))
GLOBAL_UNIT_ASSIGNED_CONTEXT((#530,#529,#528))
REPRESENTATION_CONTEXT('MD','COMPONENT_PART')
);
#524=(
GEOMETRIC_REPRESENTATION_CONTEXT(3)
GLOBAL_UNCERTAINTY_ASSIGNED_CONTEXT((#527))
GLOBAL_UNIT_ASSIGNED_CONTEXT((#530,#529,#528))
REPRESENTATION_CONTEXT('LDF','COMPONENT_PART')
);
#525=UNCERTAINTY_MEASURE_WITH_UNIT(LENGTH_MEASURE(0.005),#530,
'DISTANCE_ACCURACY_VALUE','Maximum Tolerance applied to model');
#526=UNCERTAINTY_MEASURE_WITH_UNIT(LENGTH_MEASURE(0.005),#530,
'DISTANCE_ACCURACY_VALUE','Maximum Tolerance applied to model');
#527=UNCERTAINTY_MEASURE_WITH_UNIT(LENGTH_MEASURE(0.005),#530,
'DISTANCE_ACCURACY_VALUE','Maximum Tolerance applied to model');
#528=(
NAMED_UNIT(*)
SI_UNIT($,.STERADIAN.)
SOLID_ANGLE_UNIT()
);
#529=(
NAMED_UNIT(*)
PLANE_ANGLE_UNIT()
SI_UNIT($,.RADIAN.)
);
#530=(
LENGTH_UNIT()
NAMED_UNIT(*)
SI_UNIT(.MILLI.,.METRE.)
);
#531=PRODUCT_DEFINITION_SHAPE('','',#536);
#532=PRODUCT_DEFINITION_SHAPE('','',#537);
#533=PRODUCT_DEFINITION_SHAPE(' ','NAUO PRDDFN',#20);
#534=PRODUCT_DEFINITION_SHAPE('','',#538);
#535=PRODUCT_DEFINITION_SHAPE(' ','NAUO PRDDFN',#21);
#536=PRODUCT_DEFINITION('','',#542,#539);
#537=PRODUCT_DEFINITION('','',#543,#540);
#538=PRODUCT_DEFINITION('','',#544,#541);
#539=PRODUCT_DEFINITION_CONTEXT('',#558,'design');
#540=PRODUCT_DEFINITION_CONTEXT('',#558,'design');
#541=PRODUCT_DEFINITION_CONTEXT('',#558,'design');
#542=PRODUCT_DEFINITION_FORMATION_WITH_SPECIFIED_SOURCE('','',#548,
 .NOT_KNOWN.);
#543=PRODUCT_DEFINITION_FORMATION_WITH_SPECIFIED_SOURCE('','',#549,
 .NOT_KNOWN.);
#544=PRODUCT_DEFINITION_FORMATION_WITH_SPECIFIED_SOURCE('','',#550,
 .NOT_KNOWN.);
#545=PRODUCT_RELATED_PRODUCT_CATEGORY('','',(#548));
#546=PRODUCT_RELATED_PRODUCT_CATEGORY('','',(#549));
#547=PRODUCT_RELATED_PRODUCT_CATEGORY('','',(#550));
#548=PRODUCT('X3-DSN0603-2_Type-B','X3-DSN0603-2_Type-B',
'X3-DSN0603-2_Type-B',(#554));
#549=PRODUCT('MD','MD','MD',(#555));
#550=PRODUCT('LDF','LDF','LDF',(#556));
#551=PRODUCT_CATEGORY('','');
#552=PRODUCT_CATEGORY('','');
#553=PRODUCT_CATEGORY('','');
#554=PRODUCT_CONTEXT('',#558,'mechanical');
#555=PRODUCT_CONTEXT('',#558,'mechanical');
#556=PRODUCT_CONTEXT('',#558,'mechanical');
#557=APPLICATION_PROTOCOL_DEFINITION('international standard',
'automotive_design',2010,#558);
#558=APPLICATION_CONTEXT(
'core data for automotive mechanical design processes');
ENDSEC;
END-ISO-10303-21;
