ISO-10303-21;
HEADER;
/* Generated by software containing ST-Developer
 * from STEP Tools, Inc. (www.steptools.com) 
 */
/* OPTION: strings as raw bytes, not using required /X/ escapes */

FILE_DESCRIPTION(
/* description */ ('Unknown'),
/* implementation_level */ '2;1');

FILE_NAME(
/* name */ 'X2-TSN0808-4',
/* time_stamp */ '2021-06-03T09:37:16+08:00',
/* author */ ('Unknown'),
/* organization */ ('Unknown'),
/* preprocessor_version */ 'ST-DEVELOPER v16.7',
/* originating_system */ 'DEX',
/* authorisation */ $);

FILE_SCHEMA (('AUTOMOTIVE_DESIGN {1 0 10303 214 3 1 1}'));
ENDSEC;

DATA;
#10=PROPERTY_DEFINITION_REPRESENTATION(#14,#12);
#11=PROPERTY_DEFINITION_REPRESENTATION(#15,#13);
#12=REPRESENTATION('',(#16),#588);
#13=REPRESENTATION('',(#17),#588);
#14=PROPERTY_DEFINITION('pmi validation property','',#597);
#15=PROPERTY_DEFINITION('pmi validation property','',#597);
#16=VALUE_REPRESENTATION_ITEM('number of annotations',COUNT_MEASURE(0.));
#17=VALUE_REPRESENTATION_ITEM('number of views',COUNT_MEASURE(0.));
#18=LINE('',#561,#30);
#19=LINE('',#564,#31);
#20=LINE('',#566,#32);
#21=LINE('',#568,#33);
#22=LINE('',#570,#34);
#23=LINE('',#572,#35);
#24=LINE('',#574,#36);
#25=LINE('',#576,#37);
#26=LINE('',#578,#38);
#27=LINE('',#580,#39);
#28=LINE('',#582,#40);
#29=LINE('',#583,#41);
#30=VECTOR('',#482,1000.);
#31=VECTOR('',#483,1000.);
#32=VECTOR('',#484,1000.);
#33=VECTOR('',#485,1000.);
#34=VECTOR('',#488,1000.);
#35=VECTOR('',#489,1000.);
#36=VECTOR('',#490,1000.);
#37=VECTOR('',#493,1000.);
#38=VECTOR('',#494,1000.);
#39=VECTOR('',#495,1000.);
#40=VECTOR('',#498,1000.);
#41=VECTOR('',#499,1000.);
#42=CONTEXT_DEPENDENT_SHAPE_REPRESENTATION(#46,#599);
#43=CONTEXT_DEPENDENT_SHAPE_REPRESENTATION(#47,#601);
#44=NEXT_ASSEMBLY_USAGE_OCCURRENCE('Bump','Bump','Bump',#602,#603,'');
#45=NEXT_ASSEMBLY_USAGE_OCCURRENCE('Mold','Mold','Mold',#602,#604,'');
#46=(
REPRESENTATION_RELATIONSHIP(' ',' ',#356,#357)
REPRESENTATION_RELATIONSHIP_WITH_TRANSFORMATION(#48)
SHAPE_REPRESENTATION_RELATIONSHIP()
);
#47=(
REPRESENTATION_RELATIONSHIP(' ',' ',#358,#357)
REPRESENTATION_RELATIONSHIP_WITH_TRANSFORMATION(#49)
SHAPE_REPRESENTATION_RELATIONSHIP()
);
#48=ITEM_DEFINED_TRANSFORMATION(' ',' ',#359,#380);
#49=ITEM_DEFINED_TRANSFORMATION(' ',' ',#359,#403);
#50=SHAPE_REPRESENTATION_RELATIONSHIP('','',#356,#52);
#51=SHAPE_REPRESENTATION_RELATIONSHIP('','',#358,#53);
#52=ADVANCED_BREP_SHAPE_REPRESENTATION('',(#348,#349,#350,#351),#589);
#53=ADVANCED_BREP_SHAPE_REPRESENTATION('',(#352),#590);
#54=PLANE('',#363);
#55=PLANE('',#364);
#56=PLANE('',#368);
#57=PLANE('',#369);
#58=PLANE('',#373);
#59=PLANE('',#374);
#60=PLANE('',#378);
#61=PLANE('',#379);
#62=PLANE('',#381);
#63=PLANE('',#385);
#64=PLANE('',#389);
#65=PLANE('',#393);
#66=PLANE('',#397);
#67=PLANE('',#398);
#68=PLANE('',#399);
#69=PLANE('',#400);
#70=PLANE('',#401);
#71=PLANE('',#402);
#72=ORIENTED_EDGE('',*,*,#128,.T.);
#73=ORIENTED_EDGE('',*,*,#129,.F.);
#74=ORIENTED_EDGE('',*,*,#128,.F.);
#75=ORIENTED_EDGE('',*,*,#129,.T.);
#76=ORIENTED_EDGE('',*,*,#130,.T.);
#77=ORIENTED_EDGE('',*,*,#131,.F.);
#78=ORIENTED_EDGE('',*,*,#130,.F.);
#79=ORIENTED_EDGE('',*,*,#131,.T.);
#80=ORIENTED_EDGE('',*,*,#132,.T.);
#81=ORIENTED_EDGE('',*,*,#133,.F.);
#82=ORIENTED_EDGE('',*,*,#132,.F.);
#83=ORIENTED_EDGE('',*,*,#133,.T.);
#84=ORIENTED_EDGE('',*,*,#134,.T.);
#85=ORIENTED_EDGE('',*,*,#135,.F.);
#86=ORIENTED_EDGE('',*,*,#134,.F.);
#87=ORIENTED_EDGE('',*,*,#135,.T.);
#88=ORIENTED_EDGE('',*,*,#136,.T.);
#89=ORIENTED_EDGE('',*,*,#136,.F.);
#90=ORIENTED_EDGE('',*,*,#137,.F.);
#91=ORIENTED_EDGE('',*,*,#138,.T.);
#92=ORIENTED_EDGE('',*,*,#138,.F.);
#93=ORIENTED_EDGE('',*,*,#139,.F.);
#94=ORIENTED_EDGE('',*,*,#140,.T.);
#95=ORIENTED_EDGE('',*,*,#140,.F.);
#96=ORIENTED_EDGE('',*,*,#141,.F.);
#97=ORIENTED_EDGE('',*,*,#142,.T.);
#98=ORIENTED_EDGE('',*,*,#142,.F.);
#99=ORIENTED_EDGE('',*,*,#143,.F.);
#100=ORIENTED_EDGE('',*,*,#144,.T.);
#101=ORIENTED_EDGE('',*,*,#145,.F.);
#102=ORIENTED_EDGE('',*,*,#146,.F.);
#103=ORIENTED_EDGE('',*,*,#147,.T.);
#104=ORIENTED_EDGE('',*,*,#148,.T.);
#105=ORIENTED_EDGE('',*,*,#149,.F.);
#106=ORIENTED_EDGE('',*,*,#150,.F.);
#107=ORIENTED_EDGE('',*,*,#145,.T.);
#108=ORIENTED_EDGE('',*,*,#151,.T.);
#109=ORIENTED_EDGE('',*,*,#152,.F.);
#110=ORIENTED_EDGE('',*,*,#153,.F.);
#111=ORIENTED_EDGE('',*,*,#149,.T.);
#112=ORIENTED_EDGE('',*,*,#154,.T.);
#113=ORIENTED_EDGE('',*,*,#147,.F.);
#114=ORIENTED_EDGE('',*,*,#155,.F.);
#115=ORIENTED_EDGE('',*,*,#152,.T.);
#116=ORIENTED_EDGE('',*,*,#146,.T.);
#117=ORIENTED_EDGE('',*,*,#150,.T.);
#118=ORIENTED_EDGE('',*,*,#153,.T.);
#119=ORIENTED_EDGE('',*,*,#155,.T.);
#120=ORIENTED_EDGE('',*,*,#137,.T.);
#121=ORIENTED_EDGE('',*,*,#139,.T.);
#122=ORIENTED_EDGE('',*,*,#141,.T.);
#123=ORIENTED_EDGE('',*,*,#143,.T.);
#124=ORIENTED_EDGE('',*,*,#144,.F.);
#125=ORIENTED_EDGE('',*,*,#154,.F.);
#126=ORIENTED_EDGE('',*,*,#151,.F.);
#127=ORIENTED_EDGE('',*,*,#148,.F.);
#128=EDGE_CURVE('',#156,#156,#180,.T.);
#129=EDGE_CURVE('',#157,#157,#181,.T.);
#130=EDGE_CURVE('',#158,#158,#182,.T.);
#131=EDGE_CURVE('',#159,#159,#183,.T.);
#132=EDGE_CURVE('',#160,#160,#184,.T.);
#133=EDGE_CURVE('',#161,#161,#185,.T.);
#134=EDGE_CURVE('',#162,#162,#186,.T.);
#135=EDGE_CURVE('',#163,#163,#187,.T.);
#136=EDGE_CURVE('',#164,#164,#188,.T.);
#137=EDGE_CURVE('',#165,#165,#189,.T.);
#138=EDGE_CURVE('',#166,#166,#190,.T.);
#139=EDGE_CURVE('',#167,#167,#191,.T.);
#140=EDGE_CURVE('',#168,#168,#192,.T.);
#141=EDGE_CURVE('',#169,#169,#193,.T.);
#142=EDGE_CURVE('',#170,#170,#194,.T.);
#143=EDGE_CURVE('',#171,#171,#195,.T.);
#144=EDGE_CURVE('',#172,#173,#18,.T.);
#145=EDGE_CURVE('',#174,#173,#19,.T.);
#146=EDGE_CURVE('',#175,#174,#20,.T.);
#147=EDGE_CURVE('',#175,#172,#21,.T.);
#148=EDGE_CURVE('',#173,#176,#22,.T.);
#149=EDGE_CURVE('',#177,#176,#23,.T.);
#150=EDGE_CURVE('',#174,#177,#24,.T.);
#151=EDGE_CURVE('',#176,#178,#25,.T.);
#152=EDGE_CURVE('',#179,#178,#26,.T.);
#153=EDGE_CURVE('',#177,#179,#27,.T.);
#154=EDGE_CURVE('',#178,#172,#28,.T.);
#155=EDGE_CURVE('',#179,#175,#29,.T.);
#156=VERTEX_POINT('',#509);
#157=VERTEX_POINT('',#511);
#158=VERTEX_POINT('',#516);
#159=VERTEX_POINT('',#518);
#160=VERTEX_POINT('',#523);
#161=VERTEX_POINT('',#525);
#162=VERTEX_POINT('',#530);
#163=VERTEX_POINT('',#532);
#164=VERTEX_POINT('',#538);
#165=VERTEX_POINT('',#541);
#166=VERTEX_POINT('',#544);
#167=VERTEX_POINT('',#547);
#168=VERTEX_POINT('',#550);
#169=VERTEX_POINT('',#553);
#170=VERTEX_POINT('',#556);
#171=VERTEX_POINT('',#559);
#172=VERTEX_POINT('',#562);
#173=VERTEX_POINT('',#563);
#174=VERTEX_POINT('',#565);
#175=VERTEX_POINT('',#567);
#176=VERTEX_POINT('',#571);
#177=VERTEX_POINT('',#573);
#178=VERTEX_POINT('',#577);
#179=VERTEX_POINT('',#579);
#180=CIRCLE('',#361,0.0999999999999943);
#181=CIRCLE('',#362,0.0999999999999943);
#182=CIRCLE('',#366,0.0999999999999943);
#183=CIRCLE('',#367,0.0999999999999943);
#184=CIRCLE('',#371,0.0999999999999943);
#185=CIRCLE('',#372,0.0999999999999943);
#186=CIRCLE('',#376,0.0999999999999943);
#187=CIRCLE('',#377,0.0999999999999943);
#188=CIRCLE('',#382,0.0999999999999943);
#189=CIRCLE('',#384,0.0999999999999943);
#190=CIRCLE('',#386,0.0999999999999943);
#191=CIRCLE('',#388,0.0999999999999943);
#192=CIRCLE('',#390,0.0999999999999943);
#193=CIRCLE('',#392,0.0999999999999943);
#194=CIRCLE('',#394,0.0999999999999943);
#195=CIRCLE('',#396,0.0999999999999943);
#196=EDGE_LOOP('',(#72));
#197=EDGE_LOOP('',(#73));
#198=EDGE_LOOP('',(#74));
#199=EDGE_LOOP('',(#75));
#200=EDGE_LOOP('',(#76));
#201=EDGE_LOOP('',(#77));
#202=EDGE_LOOP('',(#78));
#203=EDGE_LOOP('',(#79));
#204=EDGE_LOOP('',(#80));
#205=EDGE_LOOP('',(#81));
#206=EDGE_LOOP('',(#82));
#207=EDGE_LOOP('',(#83));
#208=EDGE_LOOP('',(#84));
#209=EDGE_LOOP('',(#85));
#210=EDGE_LOOP('',(#86));
#211=EDGE_LOOP('',(#87));
#212=EDGE_LOOP('',(#88));
#213=EDGE_LOOP('',(#89));
#214=EDGE_LOOP('',(#90));
#215=EDGE_LOOP('',(#91));
#216=EDGE_LOOP('',(#92));
#217=EDGE_LOOP('',(#93));
#218=EDGE_LOOP('',(#94));
#219=EDGE_LOOP('',(#95));
#220=EDGE_LOOP('',(#96));
#221=EDGE_LOOP('',(#97));
#222=EDGE_LOOP('',(#98));
#223=EDGE_LOOP('',(#99));
#224=EDGE_LOOP('',(#100,#101,#102,#103));
#225=EDGE_LOOP('',(#104,#105,#106,#107));
#226=EDGE_LOOP('',(#108,#109,#110,#111));
#227=EDGE_LOOP('',(#112,#113,#114,#115));
#228=EDGE_LOOP('',(#116,#117,#118,#119));
#229=EDGE_LOOP('',(#120));
#230=EDGE_LOOP('',(#121));
#231=EDGE_LOOP('',(#122));
#232=EDGE_LOOP('',(#123));
#233=EDGE_LOOP('',(#124,#125,#126,#127));
#234=FACE_BOUND('',#196,.T.);
#235=FACE_BOUND('',#197,.T.);
#236=FACE_BOUND('',#198,.T.);
#237=FACE_BOUND('',#199,.T.);
#238=FACE_BOUND('',#200,.T.);
#239=FACE_BOUND('',#201,.T.);
#240=FACE_BOUND('',#202,.T.);
#241=FACE_BOUND('',#203,.T.);
#242=FACE_BOUND('',#204,.T.);
#243=FACE_BOUND('',#205,.T.);
#244=FACE_BOUND('',#206,.T.);
#245=FACE_BOUND('',#207,.T.);
#246=FACE_BOUND('',#208,.T.);
#247=FACE_BOUND('',#209,.T.);
#248=FACE_BOUND('',#210,.T.);
#249=FACE_BOUND('',#211,.T.);
#250=FACE_BOUND('',#212,.T.);
#251=FACE_BOUND('',#213,.T.);
#252=FACE_BOUND('',#214,.T.);
#253=FACE_BOUND('',#215,.T.);
#254=FACE_BOUND('',#216,.T.);
#255=FACE_BOUND('',#217,.T.);
#256=FACE_BOUND('',#218,.T.);
#257=FACE_BOUND('',#219,.T.);
#258=FACE_BOUND('',#220,.T.);
#259=FACE_BOUND('',#221,.T.);
#260=FACE_BOUND('',#222,.T.);
#261=FACE_BOUND('',#223,.T.);
#262=FACE_BOUND('',#224,.T.);
#263=FACE_BOUND('',#225,.T.);
#264=FACE_BOUND('',#226,.T.);
#265=FACE_BOUND('',#227,.T.);
#266=FACE_BOUND('',#228,.T.);
#267=FACE_BOUND('',#229,.T.);
#268=FACE_BOUND('',#230,.T.);
#269=FACE_BOUND('',#231,.T.);
#270=FACE_BOUND('',#232,.T.);
#271=FACE_BOUND('',#233,.T.);
#272=CYLINDRICAL_SURFACE('',#360,0.0999999999999943);
#273=CYLINDRICAL_SURFACE('',#365,0.0999999999999943);
#274=CYLINDRICAL_SURFACE('',#370,0.0999999999999943);
#275=CYLINDRICAL_SURFACE('',#375,0.0999999999999943);
#276=CYLINDRICAL_SURFACE('',#383,0.0999999999999943);
#277=CYLINDRICAL_SURFACE('',#387,0.0999999999999943);
#278=CYLINDRICAL_SURFACE('',#391,0.0999999999999943);
#279=CYLINDRICAL_SURFACE('',#395,0.0999999999999943);
#280=ADVANCED_FACE('',(#234,#235),#272,.T.);
#281=ADVANCED_FACE('',(#236),#54,.F.);
#282=ADVANCED_FACE('',(#237),#55,.T.);
#283=ADVANCED_FACE('',(#238,#239),#273,.T.);
#284=ADVANCED_FACE('',(#240),#56,.F.);
#285=ADVANCED_FACE('',(#241),#57,.T.);
#286=ADVANCED_FACE('',(#242,#243),#274,.T.);
#287=ADVANCED_FACE('',(#244),#58,.F.);
#288=ADVANCED_FACE('',(#245),#59,.T.);
#289=ADVANCED_FACE('',(#246,#247),#275,.T.);
#290=ADVANCED_FACE('',(#248),#60,.F.);
#291=ADVANCED_FACE('',(#249),#61,.T.);
#292=ADVANCED_FACE('',(#250),#62,.T.);
#293=ADVANCED_FACE('',(#251,#252),#276,.F.);
#294=ADVANCED_FACE('',(#253),#63,.T.);
#295=ADVANCED_FACE('',(#254,#255),#277,.F.);
#296=ADVANCED_FACE('',(#256),#64,.T.);
#297=ADVANCED_FACE('',(#257,#258),#278,.F.);
#298=ADVANCED_FACE('',(#259),#65,.T.);
#299=ADVANCED_FACE('',(#260,#261),#279,.F.);
#300=ADVANCED_FACE('',(#262),#66,.F.);
#301=ADVANCED_FACE('',(#263),#67,.F.);
#302=ADVANCED_FACE('',(#264),#68,.F.);
#303=ADVANCED_FACE('',(#265),#69,.F.);
#304=ADVANCED_FACE('',(#266),#70,.T.);
#305=ADVANCED_FACE('',(#267,#268,#269,#270,#271),#71,.F.);
#306=CLOSED_SHELL('',(#280,#281,#282));
#307=CLOSED_SHELL('',(#283,#284,#285));
#308=CLOSED_SHELL('',(#286,#287,#288));
#309=CLOSED_SHELL('',(#289,#290,#291));
#310=CLOSED_SHELL('',(#292,#293,#294,#295,#296,#297,#298,#299,#300,#301,
#302,#303,#304,#305));
#311=STYLED_ITEM('',(#316),#348);
#312=STYLED_ITEM('',(#317),#349);
#313=STYLED_ITEM('',(#318),#350);
#314=STYLED_ITEM('',(#319),#351);
#315=STYLED_ITEM('',(#320),#352);
#316=PRESENTATION_STYLE_ASSIGNMENT((#321));
#317=PRESENTATION_STYLE_ASSIGNMENT((#322));
#318=PRESENTATION_STYLE_ASSIGNMENT((#323));
#319=PRESENTATION_STYLE_ASSIGNMENT((#324));
#320=PRESENTATION_STYLE_ASSIGNMENT((#325));
#321=SURFACE_STYLE_USAGE(.BOTH.,#326);
#322=SURFACE_STYLE_USAGE(.BOTH.,#327);
#323=SURFACE_STYLE_USAGE(.BOTH.,#328);
#324=SURFACE_STYLE_USAGE(.BOTH.,#329);
#325=SURFACE_STYLE_USAGE(.BOTH.,#330);
#326=SURFACE_SIDE_STYLE('',(#331));
#327=SURFACE_SIDE_STYLE('',(#332));
#328=SURFACE_SIDE_STYLE('',(#333));
#329=SURFACE_SIDE_STYLE('',(#334));
#330=SURFACE_SIDE_STYLE('',(#335));
#331=SURFACE_STYLE_FILL_AREA(#336);
#332=SURFACE_STYLE_FILL_AREA(#337);
#333=SURFACE_STYLE_FILL_AREA(#338);
#334=SURFACE_STYLE_FILL_AREA(#339);
#335=SURFACE_STYLE_FILL_AREA(#340);
#336=FILL_AREA_STYLE('',(#341));
#337=FILL_AREA_STYLE('',(#342));
#338=FILL_AREA_STYLE('',(#343));
#339=FILL_AREA_STYLE('',(#344));
#340=FILL_AREA_STYLE('',(#345));
#341=FILL_AREA_STYLE_COLOUR('',#346);
#342=FILL_AREA_STYLE_COLOUR('',#346);
#343=FILL_AREA_STYLE_COLOUR('',#346);
#344=FILL_AREA_STYLE_COLOUR('',#346);
#345=FILL_AREA_STYLE_COLOUR('',#347);
#346=COLOUR_RGB('',0.87058824300766,0.633254885673523,0.172549024224281);
#347=COLOUR_RGB('',0.200000002980232,0.200000002980232,0.200000002980232);
#348=MANIFOLD_SOLID_BREP('',#306);
#349=MANIFOLD_SOLID_BREP('',#307);
#350=MANIFOLD_SOLID_BREP('',#308);
#351=MANIFOLD_SOLID_BREP('',#309);
#352=MANIFOLD_SOLID_BREP('',#310);
#353=SHAPE_DEFINITION_REPRESENTATION(#598,#356);
#354=SHAPE_DEFINITION_REPRESENTATION(#597,#357);
#355=SHAPE_DEFINITION_REPRESENTATION(#600,#358);
#356=SHAPE_REPRESENTATION('Bump',(#359),#589);
#357=SHAPE_REPRESENTATION('X2-TSN0808-4',(#359,#380,#403),#588);
#358=SHAPE_REPRESENTATION('Mold',(#359),#590);
#359=AXIS2_PLACEMENT_3D('',#506,#404,#405);
#360=AXIS2_PLACEMENT_3D('',#507,#406,#407);
#361=AXIS2_PLACEMENT_3D('',#508,#408,#409);
#362=AXIS2_PLACEMENT_3D('',#510,#410,#411);
#363=AXIS2_PLACEMENT_3D('',#512,#412,#413);
#364=AXIS2_PLACEMENT_3D('',#513,#414,#415);
#365=AXIS2_PLACEMENT_3D('',#514,#416,#417);
#366=AXIS2_PLACEMENT_3D('',#515,#418,#419);
#367=AXIS2_PLACEMENT_3D('',#517,#420,#421);
#368=AXIS2_PLACEMENT_3D('',#519,#422,#423);
#369=AXIS2_PLACEMENT_3D('',#520,#424,#425);
#370=AXIS2_PLACEMENT_3D('',#521,#426,#427);
#371=AXIS2_PLACEMENT_3D('',#522,#428,#429);
#372=AXIS2_PLACEMENT_3D('',#524,#430,#431);
#373=AXIS2_PLACEMENT_3D('',#526,#432,#433);
#374=AXIS2_PLACEMENT_3D('',#527,#434,#435);
#375=AXIS2_PLACEMENT_3D('',#528,#436,#437);
#376=AXIS2_PLACEMENT_3D('',#529,#438,#439);
#377=AXIS2_PLACEMENT_3D('',#531,#440,#441);
#378=AXIS2_PLACEMENT_3D('',#533,#442,#443);
#379=AXIS2_PLACEMENT_3D('',#534,#444,#445);
#380=AXIS2_PLACEMENT_3D('',#535,#446,#447);
#381=AXIS2_PLACEMENT_3D('',#536,#448,#449);
#382=AXIS2_PLACEMENT_3D('',#537,#450,#451);
#383=AXIS2_PLACEMENT_3D('',#539,#452,#453);
#384=AXIS2_PLACEMENT_3D('',#540,#454,#455);
#385=AXIS2_PLACEMENT_3D('',#542,#456,#457);
#386=AXIS2_PLACEMENT_3D('',#543,#458,#459);
#387=AXIS2_PLACEMENT_3D('',#545,#460,#461);
#388=AXIS2_PLACEMENT_3D('',#546,#462,#463);
#389=AXIS2_PLACEMENT_3D('',#548,#464,#465);
#390=AXIS2_PLACEMENT_3D('',#549,#466,#467);
#391=AXIS2_PLACEMENT_3D('',#551,#468,#469);
#392=AXIS2_PLACEMENT_3D('',#552,#470,#471);
#393=AXIS2_PLACEMENT_3D('',#554,#472,#473);
#394=AXIS2_PLACEMENT_3D('',#555,#474,#475);
#395=AXIS2_PLACEMENT_3D('',#557,#476,#477);
#396=AXIS2_PLACEMENT_3D('',#558,#478,#479);
#397=AXIS2_PLACEMENT_3D('',#560,#480,#481);
#398=AXIS2_PLACEMENT_3D('',#569,#486,#487);
#399=AXIS2_PLACEMENT_3D('',#575,#491,#492);
#400=AXIS2_PLACEMENT_3D('',#581,#496,#497);
#401=AXIS2_PLACEMENT_3D('',#584,#500,#501);
#402=AXIS2_PLACEMENT_3D('',#585,#502,#503);
#403=AXIS2_PLACEMENT_3D('',#586,#504,#505);
#404=DIRECTION('',(0.,0.,1.));
#405=DIRECTION('',(1.,0.,0.));
#406=DIRECTION('',(0.,0.,1.));
#407=DIRECTION('',(1.,0.,0.));
#408=DIRECTION('',(0.,0.,1.));
#409=DIRECTION('',(1.,0.,0.));
#410=DIRECTION('',(0.,0.,1.));
#411=DIRECTION('',(1.,0.,0.));
#412=DIRECTION('',(0.,0.,1.));
#413=DIRECTION('',(1.,0.,0.));
#414=DIRECTION('',(0.,0.,1.));
#415=DIRECTION('',(1.,0.,0.));
#416=DIRECTION('',(0.,0.,1.));
#417=DIRECTION('',(1.,0.,0.));
#418=DIRECTION('',(0.,0.,1.));
#419=DIRECTION('',(1.,0.,0.));
#420=DIRECTION('',(0.,0.,1.));
#421=DIRECTION('',(1.,0.,0.));
#422=DIRECTION('',(0.,0.,1.));
#423=DIRECTION('',(1.,0.,0.));
#424=DIRECTION('',(0.,0.,1.));
#425=DIRECTION('',(1.,0.,0.));
#426=DIRECTION('',(0.,0.,1.));
#427=DIRECTION('',(1.,0.,0.));
#428=DIRECTION('',(0.,0.,1.));
#429=DIRECTION('',(1.,0.,0.));
#430=DIRECTION('',(0.,0.,1.));
#431=DIRECTION('',(1.,0.,0.));
#432=DIRECTION('',(0.,0.,1.));
#433=DIRECTION('',(1.,0.,0.));
#434=DIRECTION('',(0.,0.,1.));
#435=DIRECTION('',(1.,0.,0.));
#436=DIRECTION('',(0.,0.,1.));
#437=DIRECTION('',(1.,0.,0.));
#438=DIRECTION('',(0.,0.,1.));
#439=DIRECTION('',(1.,0.,0.));
#440=DIRECTION('',(0.,0.,1.));
#441=DIRECTION('',(1.,0.,0.));
#442=DIRECTION('',(0.,0.,1.));
#443=DIRECTION('',(1.,0.,0.));
#444=DIRECTION('',(0.,0.,1.));
#445=DIRECTION('',(1.,0.,0.));
#446=DIRECTION('',(0.,0.,1.));
#447=DIRECTION('',(1.,0.,0.));
#448=DIRECTION('',(0.,0.,1.));
#449=DIRECTION('',(1.,0.,0.));
#450=DIRECTION('',(0.,0.,1.));
#451=DIRECTION('',(1.,0.,0.));
#452=DIRECTION('',(0.,0.,1.));
#453=DIRECTION('',(1.,0.,0.));
#454=DIRECTION('',(0.,0.,-1.));
#455=DIRECTION('',(-1.,0.,0.));
#456=DIRECTION('',(0.,0.,1.));
#457=DIRECTION('',(1.,0.,0.));
#458=DIRECTION('',(0.,0.,1.));
#459=DIRECTION('',(1.,0.,0.));
#460=DIRECTION('',(0.,0.,1.));
#461=DIRECTION('',(1.,0.,0.));
#462=DIRECTION('',(0.,0.,-1.));
#463=DIRECTION('',(-1.,0.,0.));
#464=DIRECTION('',(0.,0.,1.));
#465=DIRECTION('',(1.,0.,0.));
#466=DIRECTION('',(0.,0.,1.));
#467=DIRECTION('',(1.,0.,0.));
#468=DIRECTION('',(0.,0.,1.));
#469=DIRECTION('',(1.,0.,0.));
#470=DIRECTION('',(0.,0.,-1.));
#471=DIRECTION('',(-1.,0.,0.));
#472=DIRECTION('',(0.,0.,1.));
#473=DIRECTION('',(1.,0.,0.));
#474=DIRECTION('',(0.,0.,1.));
#475=DIRECTION('',(1.,0.,0.));
#476=DIRECTION('',(0.,0.,1.));
#477=DIRECTION('',(1.,0.,0.));
#478=DIRECTION('',(0.,0.,-1.));
#479=DIRECTION('',(-1.,0.,0.));
#480=DIRECTION('',(-1.,0.,0.));
#481=DIRECTION('',(0.,0.,1.));
#482=DIRECTION('',(0.,-1.,0.));
#483=DIRECTION('',(0.,0.,1.));
#484=DIRECTION('',(0.,-1.,0.));
#485=DIRECTION('',(0.,0.,1.));
#486=DIRECTION('',(0.,1.,0.));
#487=DIRECTION('',(0.,0.,1.));
#488=DIRECTION('',(-1.,0.,0.));
#489=DIRECTION('',(0.,0.,1.));
#490=DIRECTION('',(-1.,0.,0.));
#491=DIRECTION('',(1.,0.,0.));
#492=DIRECTION('',(0.,0.,-1.));
#493=DIRECTION('',(0.,1.,0.));
#494=DIRECTION('',(0.,0.,1.));
#495=DIRECTION('',(0.,1.,0.));
#496=DIRECTION('',(0.,-1.,0.));
#497=DIRECTION('',(0.,0.,-1.));
#498=DIRECTION('',(1.,0.,0.));
#499=DIRECTION('',(1.,0.,0.));
#500=DIRECTION('',(0.,0.,-1.));
#501=DIRECTION('',(-1.,0.,0.));
#502=DIRECTION('',(0.,0.,-1.));
#503=DIRECTION('',(-1.,0.,0.));
#504=DIRECTION('',(0.,0.,1.));
#505=DIRECTION('',(1.,0.,0.));
#506=CARTESIAN_POINT('',(0.,0.,0.));
#507=CARTESIAN_POINT('',(-0.199999999999811,0.199999999999922,-0.001));
#508=CARTESIAN_POINT('',(-0.199999999999811,0.199999999999922,-0.001));
#509=CARTESIAN_POINT('',(-0.0999999999998171,0.199999999999922,-0.001));
#510=CARTESIAN_POINT('',(-0.199999999999811,0.199999999999922,0.));
#511=CARTESIAN_POINT('',(-0.0999999999998171,0.199999999999922,0.));
#512=CARTESIAN_POINT('',(-0.199999999999811,0.199999999999922,-0.001));
#513=CARTESIAN_POINT('',(-0.199999999999811,0.199999999999922,0.));
#514=CARTESIAN_POINT('',(-0.199999999999811,-0.200000000000145,-0.001));
#515=CARTESIAN_POINT('',(-0.199999999999811,-0.200000000000145,-0.001));
#516=CARTESIAN_POINT('',(-0.0999999999998171,-0.200000000000145,-0.001));
#517=CARTESIAN_POINT('',(-0.199999999999811,-0.200000000000145,0.));
#518=CARTESIAN_POINT('',(-0.0999999999998171,-0.200000000000145,0.));
#519=CARTESIAN_POINT('',(-0.199999999999811,-0.200000000000145,-0.001));
#520=CARTESIAN_POINT('',(-0.199999999999811,-0.200000000000145,0.));
#521=CARTESIAN_POINT('',(0.199999999999811,0.199999999999922,-0.001));
#522=CARTESIAN_POINT('',(0.199999999999811,0.199999999999922,-0.001));
#523=CARTESIAN_POINT('',(0.299999999999806,0.199999999999922,-0.001));
#524=CARTESIAN_POINT('',(0.199999999999811,0.199999999999922,0.));
#525=CARTESIAN_POINT('',(0.299999999999806,0.199999999999922,0.));
#526=CARTESIAN_POINT('',(0.199999999999811,0.199999999999922,-0.001));
#527=CARTESIAN_POINT('',(0.199999999999811,0.199999999999922,0.));
#528=CARTESIAN_POINT('',(0.199999999999811,-0.200000000000145,-0.001));
#529=CARTESIAN_POINT('',(0.199999999999811,-0.200000000000145,-0.001));
#530=CARTESIAN_POINT('',(0.299999999999806,-0.200000000000145,-0.001));
#531=CARTESIAN_POINT('',(0.199999999999811,-0.200000000000145,0.));
#532=CARTESIAN_POINT('',(0.299999999999806,-0.200000000000145,0.));
#533=CARTESIAN_POINT('',(0.199999999999811,-0.200000000000145,-0.001));
#534=CARTESIAN_POINT('',(0.199999999999811,-0.200000000000145,0.));
#535=CARTESIAN_POINT('',(0.,0.,0.));
#536=CARTESIAN_POINT('',(0.199999999999811,-0.200000000000145,-0.001));
#537=CARTESIAN_POINT('',(0.199999999999811,-0.200000000000145,-0.001));
#538=CARTESIAN_POINT('',(0.299999999999806,-0.200000000000145,-0.001));
#539=CARTESIAN_POINT('',(0.199999999999811,-0.200000000000145,-0.001));
#540=CARTESIAN_POINT('',(0.199999999999811,-0.200000000000145,0.));
#541=CARTESIAN_POINT('',(0.0999999999998171,-0.200000000000145,0.));
#542=CARTESIAN_POINT('',(0.199999999999811,0.199999999999922,-0.001));
#543=CARTESIAN_POINT('',(0.199999999999811,0.199999999999922,-0.001));
#544=CARTESIAN_POINT('',(0.299999999999806,0.199999999999922,-0.001));
#545=CARTESIAN_POINT('',(0.199999999999811,0.199999999999922,-0.001));
#546=CARTESIAN_POINT('',(0.199999999999811,0.199999999999922,0.));
#547=CARTESIAN_POINT('',(0.0999999999998171,0.199999999999922,0.));
#548=CARTESIAN_POINT('',(-0.199999999999811,-0.200000000000145,-0.001));
#549=CARTESIAN_POINT('',(-0.199999999999811,-0.200000000000145,-0.001));
#550=CARTESIAN_POINT('',(-0.0999999999998171,-0.200000000000145,-0.001));
#551=CARTESIAN_POINT('',(-0.199999999999811,-0.200000000000145,-0.001));
#552=CARTESIAN_POINT('',(-0.199999999999811,-0.200000000000145,0.));
#553=CARTESIAN_POINT('',(-0.299999999999806,-0.200000000000145,0.));
#554=CARTESIAN_POINT('',(-0.199999999999811,0.199999999999922,-0.001));
#555=CARTESIAN_POINT('',(-0.199999999999811,0.199999999999922,-0.001));
#556=CARTESIAN_POINT('',(-0.0999999999998171,0.199999999999922,-0.001));
#557=CARTESIAN_POINT('',(-0.199999999999811,0.199999999999922,-0.001));
#558=CARTESIAN_POINT('',(-0.199999999999811,0.199999999999922,0.));
#559=CARTESIAN_POINT('',(-0.299999999999806,0.199999999999922,0.));
#560=CARTESIAN_POINT('',(0.380000000000102,0.379999999999991,-0.275));
#561=CARTESIAN_POINT('',(0.380000000000102,0.379999999999991,0.));
#562=CARTESIAN_POINT('',(0.380000000000102,0.379999999999991,0.));
#563=CARTESIAN_POINT('',(0.380000000000102,-0.379999999999991,0.));
#564=CARTESIAN_POINT('',(0.380000000000102,-0.379999999999991,-0.275));
#565=CARTESIAN_POINT('',(0.380000000000102,-0.379999999999991,-0.275));
#566=CARTESIAN_POINT('',(0.380000000000102,0.379999999999991,-0.275));
#567=CARTESIAN_POINT('',(0.380000000000102,0.379999999999991,-0.275));
#568=CARTESIAN_POINT('',(0.380000000000102,0.379999999999991,-0.275));
#569=CARTESIAN_POINT('',(0.380000000000102,-0.379999999999991,-0.275));
#570=CARTESIAN_POINT('',(0.380000000000102,-0.379999999999991,0.));
#571=CARTESIAN_POINT('',(-0.380000000000102,-0.379999999999991,0.));
#572=CARTESIAN_POINT('',(-0.380000000000102,-0.379999999999991,-0.275));
#573=CARTESIAN_POINT('',(-0.380000000000102,-0.379999999999991,-0.275));
#574=CARTESIAN_POINT('',(0.380000000000102,-0.379999999999991,-0.275));
#575=CARTESIAN_POINT('',(-0.380000000000102,-0.379999999999991,-0.275));
#576=CARTESIAN_POINT('',(-0.380000000000102,-0.379999999999991,0.));
#577=CARTESIAN_POINT('',(-0.380000000000102,0.379999999999991,0.));
#578=CARTESIAN_POINT('',(-0.380000000000102,0.379999999999991,-0.275));
#579=CARTESIAN_POINT('',(-0.380000000000102,0.379999999999991,-0.275));
#580=CARTESIAN_POINT('',(-0.380000000000102,-0.379999999999991,-0.275));
#581=CARTESIAN_POINT('',(-0.380000000000102,0.379999999999991,-0.275));
#582=CARTESIAN_POINT('',(-0.380000000000102,0.379999999999991,0.));
#583=CARTESIAN_POINT('',(-0.380000000000102,0.379999999999991,-0.275));
#584=CARTESIAN_POINT('',(0.,0.,-0.275));
#585=CARTESIAN_POINT('',(0.,0.,0.));
#586=CARTESIAN_POINT('',(0.,0.,0.));
#587=MECHANICAL_DESIGN_GEOMETRIC_PRESENTATION_REPRESENTATION('',(#311,#312,
#313,#314,#315),#588);
#588=(
GEOMETRIC_REPRESENTATION_CONTEXT(3)
GLOBAL_UNCERTAINTY_ASSIGNED_CONTEXT((#591))
GLOBAL_UNIT_ASSIGNED_CONTEXT((#596,#595,#594))
REPRESENTATION_CONTEXT('X2-TSN0808-4','TOP_LEVEL_ASSEMBLY_PART')
);
#589=(
GEOMETRIC_REPRESENTATION_CONTEXT(3)
GLOBAL_UNCERTAINTY_ASSIGNED_CONTEXT((#592))
GLOBAL_UNIT_ASSIGNED_CONTEXT((#596,#595,#594))
REPRESENTATION_CONTEXT('Bump','COMPONENT_PART')
);
#590=(
GEOMETRIC_REPRESENTATION_CONTEXT(3)
GLOBAL_UNCERTAINTY_ASSIGNED_CONTEXT((#593))
GLOBAL_UNIT_ASSIGNED_CONTEXT((#596,#595,#594))
REPRESENTATION_CONTEXT('Mold','COMPONENT_PART')
);
#591=UNCERTAINTY_MEASURE_WITH_UNIT(LENGTH_MEASURE(0.005),#596,
'DISTANCE_ACCURACY_VALUE','Maximum Tolerance applied to model');
#592=UNCERTAINTY_MEASURE_WITH_UNIT(LENGTH_MEASURE(0.005),#596,
'DISTANCE_ACCURACY_VALUE','Maximum Tolerance applied to model');
#593=UNCERTAINTY_MEASURE_WITH_UNIT(LENGTH_MEASURE(0.005),#596,
'DISTANCE_ACCURACY_VALUE','Maximum Tolerance applied to model');
#594=(
NAMED_UNIT(*)
SI_UNIT($,.STERADIAN.)
SOLID_ANGLE_UNIT()
);
#595=(
NAMED_UNIT(*)
PLANE_ANGLE_UNIT()
SI_UNIT($,.RADIAN.)
);
#596=(
LENGTH_UNIT()
NAMED_UNIT(*)
SI_UNIT(.MILLI.,.METRE.)
);
#597=PRODUCT_DEFINITION_SHAPE('','',#602);
#598=PRODUCT_DEFINITION_SHAPE('','',#603);
#599=PRODUCT_DEFINITION_SHAPE(' ','NAUO PRDDFN',#44);
#600=PRODUCT_DEFINITION_SHAPE('','',#604);
#601=PRODUCT_DEFINITION_SHAPE(' ','NAUO PRDDFN',#45);
#602=PRODUCT_DEFINITION('','',#608,#605);
#603=PRODUCT_DEFINITION('','',#609,#606);
#604=PRODUCT_DEFINITION('','',#610,#607);
#605=PRODUCT_DEFINITION_CONTEXT('',#624,'design');
#606=PRODUCT_DEFINITION_CONTEXT('',#624,'design');
#607=PRODUCT_DEFINITION_CONTEXT('',#624,'design');
#608=PRODUCT_DEFINITION_FORMATION_WITH_SPECIFIED_SOURCE('','',#614,
 .NOT_KNOWN.);
#609=PRODUCT_DEFINITION_FORMATION_WITH_SPECIFIED_SOURCE('','',#615,
 .NOT_KNOWN.);
#610=PRODUCT_DEFINITION_FORMATION_WITH_SPECIFIED_SOURCE('','',#616,
 .NOT_KNOWN.);
#611=PRODUCT_RELATED_PRODUCT_CATEGORY('','',(#614));
#612=PRODUCT_RELATED_PRODUCT_CATEGORY('','',(#615));
#613=PRODUCT_RELATED_PRODUCT_CATEGORY('','',(#616));
#614=PRODUCT('X2-TSN0808-4','X2-TSN0808-4','X2-TSN0808-4',(#620));
#615=PRODUCT('Bump','Bump','Bump',(#621));
#616=PRODUCT('Mold','Mold','Mold',(#622));
#617=PRODUCT_CATEGORY('','');
#618=PRODUCT_CATEGORY('','');
#619=PRODUCT_CATEGORY('','');
#620=PRODUCT_CONTEXT('',#624,'mechanical');
#621=PRODUCT_CONTEXT('',#624,'mechanical');
#622=PRODUCT_CONTEXT('',#624,'mechanical');
#623=APPLICATION_PROTOCOL_DEFINITION('international standard',
'automotive_design',2010,#624);
#624=APPLICATION_CONTEXT(
'core data for automotive mechanical design processes');
ENDSEC;
END-ISO-10303-21;
