ISO-10303-21;
HEADER;
/* Generated by software containing ST-Developer
 * from STEP Tools, Inc. (www.steptools.com) 
 */
/* OPTION: strings as raw bytes, not using required /X/ escapes */

FILE_DESCRIPTION(
/* description */ ('Unknown'),
/* implementation_level */ '2;1');

FILE_NAME(
/* name */ 'DS-LXS0204',
/* time_stamp */ '2025-07-30T09:44:15+08:00',
/* author */ ('Unknown'),
/* organization */ ('Unknown'),
/* preprocessor_version */ 'ST-DEVELOPER v20',
/* originating_system */ 'Solid Edge',
/* authorisation */ 'Unknown');

FILE_SCHEMA (('AUTOMOTIVE_DESIGN {1 0 10303 214 3 1 1}'));
ENDSEC;

DATA;
#10=PROPERTY_DEFINITION_REPRESENTATION(#14,#12);
#11=PROPERTY_DEFINITION_REPRESENTATION(#15,#13);
#12=REPRESENTATION('',(#16),#436);
#13=REPRESENTATION('',(#17),#436);
#14=PROPERTY_DEFINITION('pmi validation property','',#445);
#15=PROPERTY_DEFINITION('pmi validation property','',#445);
#16=VALUE_REPRESENTATION_ITEM('number of annotations',COUNT_MEASURE(0.));
#17=VALUE_REPRESENTATION_ITEM('number of views',COUNT_MEASURE(0.));
#18=ORIENTED_EDGE('',*,*,#42,.F.);
#19=ORIENTED_EDGE('',*,*,#43,.F.);
#20=ORIENTED_EDGE('',*,*,#44,.T.);
#21=ORIENTED_EDGE('',*,*,#45,.T.);
#22=ORIENTED_EDGE('',*,*,#46,.F.);
#23=ORIENTED_EDGE('',*,*,#45,.F.);
#24=ORIENTED_EDGE('',*,*,#47,.T.);
#25=ORIENTED_EDGE('',*,*,#48,.T.);
#26=ORIENTED_EDGE('',*,*,#49,.F.);
#27=ORIENTED_EDGE('',*,*,#48,.F.);
#28=ORIENTED_EDGE('',*,*,#50,.T.);
#29=ORIENTED_EDGE('',*,*,#51,.T.);
#30=ORIENTED_EDGE('',*,*,#52,.F.);
#31=ORIENTED_EDGE('',*,*,#51,.F.);
#32=ORIENTED_EDGE('',*,*,#53,.T.);
#33=ORIENTED_EDGE('',*,*,#43,.T.);
#34=ORIENTED_EDGE('',*,*,#44,.F.);
#35=ORIENTED_EDGE('',*,*,#53,.F.);
#36=ORIENTED_EDGE('',*,*,#50,.F.);
#37=ORIENTED_EDGE('',*,*,#47,.F.);
#38=ORIENTED_EDGE('',*,*,#42,.T.);
#39=ORIENTED_EDGE('',*,*,#46,.T.);
#40=ORIENTED_EDGE('',*,*,#49,.T.);
#41=ORIENTED_EDGE('',*,*,#52,.T.);
#42=EDGE_CURVE('',#114,#115,#54,.T.);
#43=EDGE_CURVE('',#116,#114,#55,.T.);
#44=EDGE_CURVE('',#116,#117,#56,.T.);
#45=EDGE_CURVE('',#117,#115,#57,.T.);
#46=EDGE_CURVE('',#115,#118,#58,.T.);
#47=EDGE_CURVE('',#117,#119,#59,.T.);
#48=EDGE_CURVE('',#119,#118,#60,.T.);
#49=EDGE_CURVE('',#118,#120,#61,.T.);
#50=EDGE_CURVE('',#119,#121,#62,.T.);
#51=EDGE_CURVE('',#121,#120,#63,.T.);
#52=EDGE_CURVE('',#120,#114,#64,.T.);
#53=EDGE_CURVE('',#121,#116,#65,.T.);
#54=LINE('',#409,#66);
#55=LINE('',#412,#67);
#56=LINE('',#414,#68);
#57=LINE('',#416,#69);
#58=LINE('',#418,#70);
#59=LINE('',#420,#71);
#60=LINE('',#422,#72);
#61=LINE('',#424,#73);
#62=LINE('',#426,#74);
#63=LINE('',#428,#75);
#64=LINE('',#430,#76);
#65=LINE('',#431,#77);
#66=VECTOR('',#358,1000.);
#67=VECTOR('',#359,1000.);
#68=VECTOR('',#360,1000.);
#69=VECTOR('',#361,1000.);
#70=VECTOR('',#364,1000.);
#71=VECTOR('',#365,1000.);
#72=VECTOR('',#366,1000.);
#73=VECTOR('',#369,1000.);
#74=VECTOR('',#370,1000.);
#75=VECTOR('',#371,1000.);
#76=VECTOR('',#374,1000.);
#77=VECTOR('',#375,1000.);
#78=EDGE_LOOP('',(#18,#19,#20,#21));
#79=EDGE_LOOP('',(#22,#23,#24,#25));
#80=EDGE_LOOP('',(#26,#27,#28,#29));
#81=EDGE_LOOP('',(#30,#31,#32,#33));
#82=EDGE_LOOP('',(#34,#35,#36,#37));
#83=EDGE_LOOP('',(#38,#39,#40,#41));
#84=PLANE('',#321);
#85=PLANE('',#322);
#86=PLANE('',#323);
#87=PLANE('',#324);
#88=PLANE('',#325);
#89=PLANE('',#326);
#90=CONTEXT_DEPENDENT_SHAPE_REPRESENTATION(#94,#447);
#91=CONTEXT_DEPENDENT_SHAPE_REPRESENTATION(#95,#449);
#92=NEXT_ASSEMBLY_USAGE_OCCURRENCE('é›¶ä»¶','é›¶ä»¶','é›¶ä»¶',#450,#451,
'');
#93=NEXT_ASSEMBLY_USAGE_OCCURRENCE('é›¶ä»¶','é›¶ä»¶','é›¶ä»¶',#450,#452,
'');
#94=(
REPRESENTATION_RELATIONSHIP(' ',' ',#304,#305)
REPRESENTATION_RELATIONSHIP_WITH_TRANSFORMATION(#96)
SHAPE_REPRESENTATION_RELATIONSHIP()
);
#95=(
REPRESENTATION_RELATIONSHIP(' ',' ',#306,#305)
REPRESENTATION_RELATIONSHIP_WITH_TRANSFORMATION(#97)
SHAPE_REPRESENTATION_RELATIONSHIP()
);
#96=ITEM_DEFINED_TRANSFORMATION(' ',' ',#307,#320);
#97=ITEM_DEFINED_TRANSFORMATION(' ',' ',#307,#327);
#98=SHAPE_REPRESENTATION_RELATIONSHIP('','',#304,#100);
#99=SHAPE_REPRESENTATION_RELATIONSHIP('','',#306,#101);
#100=ADVANCED_BREP_SHAPE_REPRESENTATION('',(#288,#289,#290,#291,#292,#293,
#294,#295,#296,#297,#298,#299),#437);
#101=ADVANCED_BREP_SHAPE_REPRESENTATION('',(#300),#438);
#102=VERTEX_POINT('',#384);
#103=VERTEX_POINT('',#386);
#104=VERTEX_POINT('',#388);
#105=VERTEX_POINT('',#390);
#106=VERTEX_POINT('',#392);
#107=VERTEX_POINT('',#394);
#108=VERTEX_POINT('',#396);
#109=VERTEX_POINT('',#398);
#110=VERTEX_POINT('',#400);
#111=VERTEX_POINT('',#402);
#112=VERTEX_POINT('',#404);
#113=VERTEX_POINT('',#406);
#114=VERTEX_POINT('',#410);
#115=VERTEX_POINT('',#411);
#116=VERTEX_POINT('',#413);
#117=VERTEX_POINT('',#415);
#118=VERTEX_POINT('',#419);
#119=VERTEX_POINT('',#421);
#120=VERTEX_POINT('',#425);
#121=VERTEX_POINT('',#427);
#122=VERTEX_LOOP('',#102);
#123=VERTEX_LOOP('',#103);
#124=VERTEX_LOOP('',#104);
#125=VERTEX_LOOP('',#105);
#126=VERTEX_LOOP('',#106);
#127=VERTEX_LOOP('',#107);
#128=VERTEX_LOOP('',#108);
#129=VERTEX_LOOP('',#109);
#130=VERTEX_LOOP('',#110);
#131=VERTEX_LOOP('',#111);
#132=VERTEX_LOOP('',#112);
#133=VERTEX_LOOP('',#113);
#134=FACE_BOUND('',#122,.T.);
#135=FACE_BOUND('',#123,.T.);
#136=FACE_BOUND('',#124,.T.);
#137=FACE_BOUND('',#125,.T.);
#138=FACE_BOUND('',#126,.T.);
#139=FACE_BOUND('',#127,.T.);
#140=FACE_BOUND('',#128,.T.);
#141=FACE_BOUND('',#129,.T.);
#142=FACE_BOUND('',#130,.T.);
#143=FACE_BOUND('',#131,.T.);
#144=FACE_BOUND('',#132,.T.);
#145=FACE_BOUND('',#133,.T.);
#146=FACE_BOUND('',#78,.T.);
#147=FACE_BOUND('',#79,.T.);
#148=FACE_BOUND('',#80,.T.);
#149=FACE_BOUND('',#81,.T.);
#150=FACE_BOUND('',#82,.T.);
#151=FACE_BOUND('',#83,.T.);
#152=SPHERICAL_SURFACE('',#308,0.105000000000018);
#153=SPHERICAL_SURFACE('',#309,0.105000000000018);
#154=SPHERICAL_SURFACE('',#310,0.105000000000018);
#155=SPHERICAL_SURFACE('',#311,0.105000000000018);
#156=SPHERICAL_SURFACE('',#312,0.105000000000018);
#157=SPHERICAL_SURFACE('',#313,0.105000000000018);
#158=SPHERICAL_SURFACE('',#314,0.105000000000018);
#159=SPHERICAL_SURFACE('',#315,0.105000000000018);
#160=SPHERICAL_SURFACE('',#316,0.105000000000018);
#161=SPHERICAL_SURFACE('',#317,0.105000000000018);
#162=SPHERICAL_SURFACE('',#318,0.105000000000018);
#163=SPHERICAL_SURFACE('',#319,0.105000000000018);
#164=ADVANCED_FACE('',(#134),#152,.T.);
#165=ADVANCED_FACE('',(#135),#153,.T.);
#166=ADVANCED_FACE('',(#136),#154,.T.);
#167=ADVANCED_FACE('',(#137),#155,.T.);
#168=ADVANCED_FACE('',(#138),#156,.T.);
#169=ADVANCED_FACE('',(#139),#157,.T.);
#170=ADVANCED_FACE('',(#140),#158,.T.);
#171=ADVANCED_FACE('',(#141),#159,.T.);
#172=ADVANCED_FACE('',(#142),#160,.T.);
#173=ADVANCED_FACE('',(#143),#161,.T.);
#174=ADVANCED_FACE('',(#144),#162,.T.);
#175=ADVANCED_FACE('',(#145),#163,.T.);
#176=ADVANCED_FACE('',(#146),#84,.T.);
#177=ADVANCED_FACE('',(#147),#85,.T.);
#178=ADVANCED_FACE('',(#148),#86,.T.);
#179=ADVANCED_FACE('',(#149),#87,.T.);
#180=ADVANCED_FACE('',(#150),#88,.F.);
#181=ADVANCED_FACE('',(#151),#89,.T.);
#182=CLOSED_SHELL('',(#164));
#183=CLOSED_SHELL('',(#165));
#184=CLOSED_SHELL('',(#166));
#185=CLOSED_SHELL('',(#167));
#186=CLOSED_SHELL('',(#168));
#187=CLOSED_SHELL('',(#169));
#188=CLOSED_SHELL('',(#170));
#189=CLOSED_SHELL('',(#171));
#190=CLOSED_SHELL('',(#172));
#191=CLOSED_SHELL('',(#173));
#192=CLOSED_SHELL('',(#174));
#193=CLOSED_SHELL('',(#175));
#194=CLOSED_SHELL('',(#176,#177,#178,#179,#180,#181));
#195=STYLED_ITEM('',(#208),#288);
#196=STYLED_ITEM('',(#209),#289);
#197=STYLED_ITEM('',(#210),#290);
#198=STYLED_ITEM('',(#211),#291);
#199=STYLED_ITEM('',(#212),#292);
#200=STYLED_ITEM('',(#213),#293);
#201=STYLED_ITEM('',(#214),#294);
#202=STYLED_ITEM('',(#215),#295);
#203=STYLED_ITEM('',(#216),#296);
#204=STYLED_ITEM('',(#217),#297);
#205=STYLED_ITEM('',(#218),#298);
#206=STYLED_ITEM('',(#219),#299);
#207=STYLED_ITEM('',(#220),#300);
#208=PRESENTATION_STYLE_ASSIGNMENT((#221));
#209=PRESENTATION_STYLE_ASSIGNMENT((#222));
#210=PRESENTATION_STYLE_ASSIGNMENT((#223));
#211=PRESENTATION_STYLE_ASSIGNMENT((#224));
#212=PRESENTATION_STYLE_ASSIGNMENT((#225));
#213=PRESENTATION_STYLE_ASSIGNMENT((#226));
#214=PRESENTATION_STYLE_ASSIGNMENT((#227));
#215=PRESENTATION_STYLE_ASSIGNMENT((#228));
#216=PRESENTATION_STYLE_ASSIGNMENT((#229));
#217=PRESENTATION_STYLE_ASSIGNMENT((#230));
#218=PRESENTATION_STYLE_ASSIGNMENT((#231));
#219=PRESENTATION_STYLE_ASSIGNMENT((#232));
#220=PRESENTATION_STYLE_ASSIGNMENT((#233));
#221=SURFACE_STYLE_USAGE(.BOTH.,#234);
#222=SURFACE_STYLE_USAGE(.BOTH.,#235);
#223=SURFACE_STYLE_USAGE(.BOTH.,#236);
#224=SURFACE_STYLE_USAGE(.BOTH.,#237);
#225=SURFACE_STYLE_USAGE(.BOTH.,#238);
#226=SURFACE_STYLE_USAGE(.BOTH.,#239);
#227=SURFACE_STYLE_USAGE(.BOTH.,#240);
#228=SURFACE_STYLE_USAGE(.BOTH.,#241);
#229=SURFACE_STYLE_USAGE(.BOTH.,#242);
#230=SURFACE_STYLE_USAGE(.BOTH.,#243);
#231=SURFACE_STYLE_USAGE(.BOTH.,#244);
#232=SURFACE_STYLE_USAGE(.BOTH.,#245);
#233=SURFACE_STYLE_USAGE(.BOTH.,#246);
#234=SURFACE_SIDE_STYLE('',(#247));
#235=SURFACE_SIDE_STYLE('',(#248));
#236=SURFACE_SIDE_STYLE('',(#249));
#237=SURFACE_SIDE_STYLE('',(#250));
#238=SURFACE_SIDE_STYLE('',(#251));
#239=SURFACE_SIDE_STYLE('',(#252));
#240=SURFACE_SIDE_STYLE('',(#253));
#241=SURFACE_SIDE_STYLE('',(#254));
#242=SURFACE_SIDE_STYLE('',(#255));
#243=SURFACE_SIDE_STYLE('',(#256));
#244=SURFACE_SIDE_STYLE('',(#257));
#245=SURFACE_SIDE_STYLE('',(#258));
#246=SURFACE_SIDE_STYLE('',(#259));
#247=SURFACE_STYLE_FILL_AREA(#260);
#248=SURFACE_STYLE_FILL_AREA(#261);
#249=SURFACE_STYLE_FILL_AREA(#262);
#250=SURFACE_STYLE_FILL_AREA(#263);
#251=SURFACE_STYLE_FILL_AREA(#264);
#252=SURFACE_STYLE_FILL_AREA(#265);
#253=SURFACE_STYLE_FILL_AREA(#266);
#254=SURFACE_STYLE_FILL_AREA(#267);
#255=SURFACE_STYLE_FILL_AREA(#268);
#256=SURFACE_STYLE_FILL_AREA(#269);
#257=SURFACE_STYLE_FILL_AREA(#270);
#258=SURFACE_STYLE_FILL_AREA(#271);
#259=SURFACE_STYLE_FILL_AREA(#272);
#260=FILL_AREA_STYLE('',(#273));
#261=FILL_AREA_STYLE('',(#274));
#262=FILL_AREA_STYLE('',(#275));
#263=FILL_AREA_STYLE('',(#276));
#264=FILL_AREA_STYLE('',(#277));
#265=FILL_AREA_STYLE('',(#278));
#266=FILL_AREA_STYLE('',(#279));
#267=FILL_AREA_STYLE('',(#280));
#268=FILL_AREA_STYLE('',(#281));
#269=FILL_AREA_STYLE('',(#282));
#270=FILL_AREA_STYLE('',(#283));
#271=FILL_AREA_STYLE('',(#284));
#272=FILL_AREA_STYLE('',(#285));
#273=FILL_AREA_STYLE_COLOUR('',#286);
#274=FILL_AREA_STYLE_COLOUR('',#286);
#275=FILL_AREA_STYLE_COLOUR('',#286);
#276=FILL_AREA_STYLE_COLOUR('',#286);
#277=FILL_AREA_STYLE_COLOUR('',#286);
#278=FILL_AREA_STYLE_COLOUR('',#286);
#279=FILL_AREA_STYLE_COLOUR('',#286);
#280=FILL_AREA_STYLE_COLOUR('',#286);
#281=FILL_AREA_STYLE_COLOUR('',#286);
#282=FILL_AREA_STYLE_COLOUR('',#286);
#283=FILL_AREA_STYLE_COLOUR('',#286);
#284=FILL_AREA_STYLE_COLOUR('',#286);
#285=FILL_AREA_STYLE_COLOUR('',#287);
#286=COLOUR_RGB('',0.699999988079071,0.699999988079071,0.699999988079071);
#287=COLOUR_RGB('',0.200000002980232,0.200000002980232,0.200000002980232);
#288=MANIFOLD_SOLID_BREP('',#182);
#289=MANIFOLD_SOLID_BREP('',#183);
#290=MANIFOLD_SOLID_BREP('',#184);
#291=MANIFOLD_SOLID_BREP('',#185);
#292=MANIFOLD_SOLID_BREP('',#186);
#293=MANIFOLD_SOLID_BREP('',#187);
#294=MANIFOLD_SOLID_BREP('',#188);
#295=MANIFOLD_SOLID_BREP('',#189);
#296=MANIFOLD_SOLID_BREP('',#190);
#297=MANIFOLD_SOLID_BREP('',#191);
#298=MANIFOLD_SOLID_BREP('',#192);
#299=MANIFOLD_SOLID_BREP('',#193);
#300=MANIFOLD_SOLID_BREP('',#194);
#301=SHAPE_DEFINITION_REPRESENTATION(#446,#304);
#302=SHAPE_DEFINITION_REPRESENTATION(#445,#305);
#303=SHAPE_DEFINITION_REPRESENTATION(#448,#306);
#304=SHAPE_REPRESENTATION('Áã¼þ',(#307),#437);
#305=SHAPE_REPRESENTATION('DS-LXS0204',(#307,#320,#327),#436);
#306=SHAPE_REPRESENTATION('Áã¼þ',(#307),#438);
#307=AXIS2_PLACEMENT_3D('',#382,#328,#329);
#308=AXIS2_PLACEMENT_3D('',#383,#330,#331);
#309=AXIS2_PLACEMENT_3D('',#385,#332,#333);
#310=AXIS2_PLACEMENT_3D('',#387,#334,#335);
#311=AXIS2_PLACEMENT_3D('',#389,#336,#337);
#312=AXIS2_PLACEMENT_3D('',#391,#338,#339);
#313=AXIS2_PLACEMENT_3D('',#393,#340,#341);
#314=AXIS2_PLACEMENT_3D('',#395,#342,#343);
#315=AXIS2_PLACEMENT_3D('',#397,#344,#345);
#316=AXIS2_PLACEMENT_3D('',#399,#346,#347);
#317=AXIS2_PLACEMENT_3D('',#401,#348,#349);
#318=AXIS2_PLACEMENT_3D('',#403,#350,#351);
#319=AXIS2_PLACEMENT_3D('',#405,#352,#353);
#320=AXIS2_PLACEMENT_3D('',#407,#354,#355);
#321=AXIS2_PLACEMENT_3D('',#408,#356,#357);
#322=AXIS2_PLACEMENT_3D('',#417,#362,#363);
#323=AXIS2_PLACEMENT_3D('',#423,#367,#368);
#324=AXIS2_PLACEMENT_3D('',#429,#372,#373);
#325=AXIS2_PLACEMENT_3D('',#432,#376,#377);
#326=AXIS2_PLACEMENT_3D('',#433,#378,#379);
#327=AXIS2_PLACEMENT_3D('',#434,#380,#381);
#328=DIRECTION('',(0.,0.,1.));
#329=DIRECTION('',(1.,0.,0.));
#330=DIRECTION('',(-1.,0.,0.));
#331=DIRECTION('',(0.,0.,-1.));
#332=DIRECTION('',(-1.,0.,0.));
#333=DIRECTION('',(0.,0.,-1.));
#334=DIRECTION('',(-1.,0.,0.));
#335=DIRECTION('',(0.,0.,-1.));
#336=DIRECTION('',(-1.,0.,0.));
#337=DIRECTION('',(0.,0.,-1.));
#338=DIRECTION('',(-1.,0.,0.));
#339=DIRECTION('',(0.,0.,-1.));
#340=DIRECTION('',(-1.,0.,0.));
#341=DIRECTION('',(0.,0.,-1.));
#342=DIRECTION('',(-1.,0.,0.));
#343=DIRECTION('',(0.,0.,-1.));
#344=DIRECTION('',(-1.,0.,0.));
#345=DIRECTION('',(0.,0.,-1.));
#346=DIRECTION('',(-1.,0.,0.));
#347=DIRECTION('',(0.,0.,-1.));
#348=DIRECTION('',(-1.,0.,0.));
#349=DIRECTION('',(0.,0.,-1.));
#350=DIRECTION('',(-1.,0.,0.));
#351=DIRECTION('',(0.,0.,-1.));
#352=DIRECTION('',(-1.,0.,0.));
#353=DIRECTION('',(0.,0.,-1.));
#354=DIRECTION('',(0.,0.,1.));
#355=DIRECTION('',(1.,0.,0.));
#356=DIRECTION('',(0.,0.,-1.));
#357=DIRECTION('',(-1.,0.,0.));
#358=DIRECTION('',(1.,0.,0.));
#359=DIRECTION('',(0.,-1.,0.));
#360=DIRECTION('',(1.,0.,0.));
#361=DIRECTION('',(0.,-1.,0.));
#362=DIRECTION('',(1.,0.,0.));
#363=DIRECTION('',(0.,0.,-1.));
#364=DIRECTION('',(0.,0.,1.));
#365=DIRECTION('',(0.,0.,1.));
#366=DIRECTION('',(0.,-1.,0.));
#367=DIRECTION('',(0.,0.,1.));
#368=DIRECTION('',(1.,0.,0.));
#369=DIRECTION('',(-1.,0.,0.));
#370=DIRECTION('',(-1.,0.,0.));
#371=DIRECTION('',(0.,-1.,0.));
#372=DIRECTION('',(-1.,0.,0.));
#373=DIRECTION('',(0.,0.,1.));
#374=DIRECTION('',(0.,0.,-1.));
#375=DIRECTION('',(0.,0.,-1.));
#376=DIRECTION('',(0.,-1.,0.));
#377=DIRECTION('',(0.,0.,-1.));
#378=DIRECTION('',(0.,-1.,0.));
#379=DIRECTION('',(0.,0.,-1.));
#380=DIRECTION('',(-8.32667268468867E-17,9.24446373305873E-33,1.));
#381=DIRECTION('',(1.,-2.22044604925031E-16,8.32667268468867E-17));
#382=CARTESIAN_POINT('',(0.,0.,0.));
#383=CARTESIAN_POINT('',(-0.349999999999906,0.,-0.524999999999998));
#384=CARTESIAN_POINT('',(-0.244999999999888,0.,-0.524999999999998));
#385=CARTESIAN_POINT('',(-0.349999999999906,0.,-0.174999999999999));
#386=CARTESIAN_POINT('',(-0.244999999999888,0.,-0.174999999999999));
#387=CARTESIAN_POINT('',(-0.349999999999906,0.,0.174999999999999));
#388=CARTESIAN_POINT('',(-0.244999999999888,0.,0.174999999999999));
#389=CARTESIAN_POINT('',(-0.349999999999906,0.,0.524999999999998));
#390=CARTESIAN_POINT('',(-0.244999999999888,0.,0.524999999999998));
#391=CARTESIAN_POINT('',(8.31583066296382E-14,0.,-0.524999999999998));
#392=CARTESIAN_POINT('',(0.105000000000101,0.,-0.524999999999998));
#393=CARTESIAN_POINT('',(8.31583066296382E-14,0.,-0.174999999999999));
#394=CARTESIAN_POINT('',(0.105000000000101,0.,-0.174999999999999));
#395=CARTESIAN_POINT('',(8.32125167382625E-14,0.,0.174999999999999));
#396=CARTESIAN_POINT('',(0.105000000000101,0.,0.174999999999999));
#397=CARTESIAN_POINT('',(8.32667268468867E-14,0.,0.524999999999998));
#398=CARTESIAN_POINT('',(0.105000000000101,0.,0.524999999999998));
#399=CARTESIAN_POINT('',(0.350000000000072,0.,-0.524999999999998));
#400=CARTESIAN_POINT('',(0.455000000000091,0.,-0.524999999999998));
#401=CARTESIAN_POINT('',(0.350000000000072,0.,-0.174999999999999));
#402=CARTESIAN_POINT('',(0.455000000000091,0.,-0.174999999999999));
#403=CARTESIAN_POINT('',(0.350000000000072,0.,0.174999999999999));
#404=CARTESIAN_POINT('',(0.455000000000091,0.,0.174999999999999));
#405=CARTESIAN_POINT('',(0.350000000000072,0.,0.524999999999998));
#406=CARTESIAN_POINT('',(0.455000000000091,0.,0.524999999999998));
#407=CARTESIAN_POINT('',(0.,-0.055,0.));
#408=CARTESIAN_POINT('',(-0.517499999999949,0.366,-0.692499999999985));
#409=CARTESIAN_POINT('',(-0.517499999999949,0.,-0.692499999999985));
#410=CARTESIAN_POINT('',(-0.517499999999949,0.,-0.692499999999985));
#411=CARTESIAN_POINT('',(0.517500000000004,0.,-0.692499999999985));
#412=CARTESIAN_POINT('',(-0.517499999999949,0.366,-0.692499999999985));
#413=CARTESIAN_POINT('',(-0.517499999999949,0.366,-0.692499999999985));
#414=CARTESIAN_POINT('',(-0.517499999999949,0.366,-0.692499999999985));
#415=CARTESIAN_POINT('',(0.517500000000004,0.366,-0.692499999999985));
#416=CARTESIAN_POINT('',(0.517500000000004,0.366,-0.692499999999985));
#417=CARTESIAN_POINT('',(0.517500000000004,0.366,-0.692499999999985));
#418=CARTESIAN_POINT('',(0.517500000000004,0.,-0.692499999999985));
#419=CARTESIAN_POINT('',(0.517500000000004,0.,0.692499999999985));
#420=CARTESIAN_POINT('',(0.517500000000004,0.366,-0.692499999999985));
#421=CARTESIAN_POINT('',(0.517500000000004,0.366,0.692499999999985));
#422=CARTESIAN_POINT('',(0.517500000000004,0.366,0.692499999999985));
#423=CARTESIAN_POINT('',(0.517500000000004,0.366,0.692499999999985));
#424=CARTESIAN_POINT('',(0.517500000000004,0.,0.692499999999985));
#425=CARTESIAN_POINT('',(-0.517499999999949,0.,0.692499999999985));
#426=CARTESIAN_POINT('',(0.517500000000004,0.366,0.692499999999985));
#427=CARTESIAN_POINT('',(-0.517499999999949,0.366,0.692499999999985));
#428=CARTESIAN_POINT('',(-0.517499999999949,0.366,0.692499999999985));
#429=CARTESIAN_POINT('',(-0.517499999999949,0.366,0.692499999999985));
#430=CARTESIAN_POINT('',(-0.517499999999949,0.,0.692499999999985));
#431=CARTESIAN_POINT('',(-0.517499999999949,0.366,0.692499999999985));
#432=CARTESIAN_POINT('',(0.,0.366,0.));
#433=CARTESIAN_POINT('',(0.,0.,0.));
#434=CARTESIAN_POINT('',(0.,0.,0.));
#435=MECHANICAL_DESIGN_GEOMETRIC_PRESENTATION_REPRESENTATION('',(#195,#196,
#197,#198,#199,#200,#201,#202,#203,#204,#205,#206,#207),#436);
#436=(
GEOMETRIC_REPRESENTATION_CONTEXT(3)
GLOBAL_UNCERTAINTY_ASSIGNED_CONTEXT((#439))
GLOBAL_UNIT_ASSIGNED_CONTEXT((#444,#443,#442))
REPRESENTATION_CONTEXT('DS-LXS0204','TOP_LEVEL_ASSEMBLY_PART')
);
#437=(
GEOMETRIC_REPRESENTATION_CONTEXT(3)
GLOBAL_UNCERTAINTY_ASSIGNED_CONTEXT((#440))
GLOBAL_UNIT_ASSIGNED_CONTEXT((#444,#443,#442))
REPRESENTATION_CONTEXT('Áã¼þ','COMPONENT_PART')
);
#438=(
GEOMETRIC_REPRESENTATION_CONTEXT(3)
GLOBAL_UNCERTAINTY_ASSIGNED_CONTEXT((#441))
GLOBAL_UNIT_ASSIGNED_CONTEXT((#444,#443,#442))
REPRESENTATION_CONTEXT('Áã¼þ4','COMPONENT_PART')
);
#439=UNCERTAINTY_MEASURE_WITH_UNIT(LENGTH_MEASURE(0.005),#444,
'DISTANCE_ACCURACY_VALUE','Maximum Tolerance applied to model');
#440=UNCERTAINTY_MEASURE_WITH_UNIT(LENGTH_MEASURE(0.005),#444,
'DISTANCE_ACCURACY_VALUE','Maximum Tolerance applied to model');
#441=UNCERTAINTY_MEASURE_WITH_UNIT(LENGTH_MEASURE(0.005),#444,
'DISTANCE_ACCURACY_VALUE','Maximum Tolerance applied to model');
#442=(
NAMED_UNIT(*)
SI_UNIT($,.STERADIAN.)
SOLID_ANGLE_UNIT()
);
#443=(
NAMED_UNIT(*)
PLANE_ANGLE_UNIT()
SI_UNIT($,.RADIAN.)
);
#444=(
LENGTH_UNIT()
NAMED_UNIT(*)
SI_UNIT(.MILLI.,.METRE.)
);
#445=PRODUCT_DEFINITION_SHAPE('','',#450);
#446=PRODUCT_DEFINITION_SHAPE('','',#451);
#447=PRODUCT_DEFINITION_SHAPE(' ','NAUO PRDDFN',#92);
#448=PRODUCT_DEFINITION_SHAPE('','',#452);
#449=PRODUCT_DEFINITION_SHAPE(' ','NAUO PRDDFN',#93);
#450=PRODUCT_DEFINITION('','',#456,#453);
#451=PRODUCT_DEFINITION('','',#457,#454);
#452=PRODUCT_DEFINITION('','',#458,#455);
#453=PRODUCT_DEFINITION_CONTEXT('',#472,'design');
#454=PRODUCT_DEFINITION_CONTEXT('',#472,'design');
#455=PRODUCT_DEFINITION_CONTEXT('',#472,'design');
#456=PRODUCT_DEFINITION_FORMATION_WITH_SPECIFIED_SOURCE('','',#462,
 .NOT_KNOWN.);
#457=PRODUCT_DEFINITION_FORMATION_WITH_SPECIFIED_SOURCE('','',#463,
 .NOT_KNOWN.);
#458=PRODUCT_DEFINITION_FORMATION_WITH_SPECIFIED_SOURCE('','',#464,
 .NOT_KNOWN.);
#459=PRODUCT_RELATED_PRODUCT_CATEGORY('','',(#462));
#460=PRODUCT_RELATED_PRODUCT_CATEGORY('','',(#463));
#461=PRODUCT_RELATED_PRODUCT_CATEGORY('','',(#464));
#462=PRODUCT('DS-LXS0204','DS-LXS0204','DS-LXS0204',(#468));
#463=PRODUCT('Áã¼þ','Áã¼þ','Áã¼þ',(#469));
#464=PRODUCT('Áã¼þ4','Áã¼þ4','Áã¼þ4',(#470));
#465=PRODUCT_CATEGORY('','');
#466=PRODUCT_CATEGORY('','');
#467=PRODUCT_CATEGORY('','');
#468=PRODUCT_CONTEXT('',#472,'mechanical');
#469=PRODUCT_CONTEXT('',#472,'mechanical');
#470=PRODUCT_CONTEXT('',#472,'mechanical');
#471=APPLICATION_PROTOCOL_DEFINITION('international standard',
'automotive_design',2010,#472);
#472=APPLICATION_CONTEXT(
'core data for automotive mechanical design processes');
ENDSEC;
END-ISO-10303-21;
