ISO-10303-21;
HEADER;
/* Generated by software containing ST-Developer
 * from STEP Tools, Inc. (www.steptools.com) 
 */
/* OPTION: strings as raw bytes, not using required /X/ escapes */

FILE_DESCRIPTION(
/* description */ ('Unknown'),
/* implementation_level */ '2;1');

FILE_NAME(
/* name */ 'X4-DSN1111-4',
/* time_stamp */ '2022-03-28T17:06:24+08:00',
/* author */ ('Unknown'),
/* organization */ ('Unknown'),
/* preprocessor_version */ 'ST-DEVELOPER v16.7',
/* originating_system */ 'DEX',
/* authorisation */ $);

FILE_SCHEMA (('AUTOMOTIVE_DESIGN {1 0 10303 214 3 1 1}'));
ENDSEC;

DATA;
#10=PROPERTY_DEFINITION_REPRESENTATION(#14,#12);
#11=PROPERTY_DEFINITION_REPRESENTATION(#15,#13);
#12=REPRESENTATION('',(#16),#588);
#13=REPRESENTATION('',(#17),#588);
#14=PROPERTY_DEFINITION('pmi validation property','',#597);
#15=PROPERTY_DEFINITION('pmi validation property','',#597);
#16=VALUE_REPRESENTATION_ITEM('number of annotations',COUNT_MEASURE(0.));
#17=VALUE_REPRESENTATION_ITEM('number of views',COUNT_MEASURE(0.));
#18=CONTEXT_DEPENDENT_SHAPE_REPRESENTATION(#22,#599);
#19=CONTEXT_DEPENDENT_SHAPE_REPRESENTATION(#23,#601);
#20=NEXT_ASSEMBLY_USAGE_OCCURRENCE('Mold','Mold','Mold',#602,#603,'');
#21=NEXT_ASSEMBLY_USAGE_OCCURRENCE('Pin','Pin','Pin',#602,#604,'');
#22=(
REPRESENTATION_RELATIONSHIP(' ',' ',#356,#357)
REPRESENTATION_RELATIONSHIP_WITH_TRANSFORMATION(#24)
SHAPE_REPRESENTATION_RELATIONSHIP()
);
#23=(
REPRESENTATION_RELATIONSHIP(' ',' ',#358,#357)
REPRESENTATION_RELATIONSHIP_WITH_TRANSFORMATION(#25)
SHAPE_REPRESENTATION_RELATIONSHIP()
);
#24=ITEM_DEFINED_TRANSFORMATION(' ',' ',#359,#382);
#25=ITEM_DEFINED_TRANSFORMATION(' ',' ',#359,#403);
#26=SHAPE_REPRESENTATION_RELATIONSHIP('','',#356,#28);
#27=SHAPE_REPRESENTATION_RELATIONSHIP('','',#358,#29);
#28=ADVANCED_BREP_SHAPE_REPRESENTATION('',(#348),#589);
#29=ADVANCED_BREP_SHAPE_REPRESENTATION('',(#349,#350,#351,#352),#590);
#30=LINE('',#532,#42);
#31=LINE('',#535,#43);
#32=LINE('',#537,#44);
#33=LINE('',#539,#45);
#34=LINE('',#541,#46);
#35=LINE('',#543,#47);
#36=LINE('',#545,#48);
#37=LINE('',#547,#49);
#38=LINE('',#549,#50);
#39=LINE('',#551,#51);
#40=LINE('',#553,#52);
#41=LINE('',#554,#53);
#42=VECTOR('',#440,1000.);
#43=VECTOR('',#441,1000.);
#44=VECTOR('',#442,1000.);
#45=VECTOR('',#443,1000.);
#46=VECTOR('',#446,1000.);
#47=VECTOR('',#447,1000.);
#48=VECTOR('',#448,1000.);
#49=VECTOR('',#451,1000.);
#50=VECTOR('',#452,1000.);
#51=VECTOR('',#453,1000.);
#52=VECTOR('',#456,1000.);
#53=VECTOR('',#457,1000.);
#54=CYLINDRICAL_SURFACE('',#362,0.149999999999977);
#55=CYLINDRICAL_SURFACE('',#366,0.149999999999977);
#56=CYLINDRICAL_SURFACE('',#370,0.149999999999977);
#57=CYLINDRICAL_SURFACE('',#374,0.149999999999977);
#58=CYLINDRICAL_SURFACE('',#383,0.149999999999977);
#59=CYLINDRICAL_SURFACE('',#388,0.149999999999977);
#60=CYLINDRICAL_SURFACE('',#393,0.149999999999977);
#61=CYLINDRICAL_SURFACE('',#398,0.149999999999977);
#62=ORIENTED_EDGE('',*,*,#118,.T.);
#63=ORIENTED_EDGE('',*,*,#118,.F.);
#64=ORIENTED_EDGE('',*,*,#119,.F.);
#65=ORIENTED_EDGE('',*,*,#120,.T.);
#66=ORIENTED_EDGE('',*,*,#120,.F.);
#67=ORIENTED_EDGE('',*,*,#121,.F.);
#68=ORIENTED_EDGE('',*,*,#122,.T.);
#69=ORIENTED_EDGE('',*,*,#122,.F.);
#70=ORIENTED_EDGE('',*,*,#123,.F.);
#71=ORIENTED_EDGE('',*,*,#124,.T.);
#72=ORIENTED_EDGE('',*,*,#124,.F.);
#73=ORIENTED_EDGE('',*,*,#125,.F.);
#74=ORIENTED_EDGE('',*,*,#126,.T.);
#75=ORIENTED_EDGE('',*,*,#127,.F.);
#76=ORIENTED_EDGE('',*,*,#128,.F.);
#77=ORIENTED_EDGE('',*,*,#129,.T.);
#78=ORIENTED_EDGE('',*,*,#130,.T.);
#79=ORIENTED_EDGE('',*,*,#131,.F.);
#80=ORIENTED_EDGE('',*,*,#132,.F.);
#81=ORIENTED_EDGE('',*,*,#127,.T.);
#82=ORIENTED_EDGE('',*,*,#133,.T.);
#83=ORIENTED_EDGE('',*,*,#134,.F.);
#84=ORIENTED_EDGE('',*,*,#135,.F.);
#85=ORIENTED_EDGE('',*,*,#131,.T.);
#86=ORIENTED_EDGE('',*,*,#136,.T.);
#87=ORIENTED_EDGE('',*,*,#129,.F.);
#88=ORIENTED_EDGE('',*,*,#137,.F.);
#89=ORIENTED_EDGE('',*,*,#134,.T.);
#90=ORIENTED_EDGE('',*,*,#128,.T.);
#91=ORIENTED_EDGE('',*,*,#132,.T.);
#92=ORIENTED_EDGE('',*,*,#135,.T.);
#93=ORIENTED_EDGE('',*,*,#137,.T.);
#94=ORIENTED_EDGE('',*,*,#119,.T.);
#95=ORIENTED_EDGE('',*,*,#121,.T.);
#96=ORIENTED_EDGE('',*,*,#123,.T.);
#97=ORIENTED_EDGE('',*,*,#125,.T.);
#98=ORIENTED_EDGE('',*,*,#126,.F.);
#99=ORIENTED_EDGE('',*,*,#136,.F.);
#100=ORIENTED_EDGE('',*,*,#133,.F.);
#101=ORIENTED_EDGE('',*,*,#130,.F.);
#102=ORIENTED_EDGE('',*,*,#138,.T.);
#103=ORIENTED_EDGE('',*,*,#139,.F.);
#104=ORIENTED_EDGE('',*,*,#138,.F.);
#105=ORIENTED_EDGE('',*,*,#139,.T.);
#106=ORIENTED_EDGE('',*,*,#140,.T.);
#107=ORIENTED_EDGE('',*,*,#141,.F.);
#108=ORIENTED_EDGE('',*,*,#140,.F.);
#109=ORIENTED_EDGE('',*,*,#141,.T.);
#110=ORIENTED_EDGE('',*,*,#142,.T.);
#111=ORIENTED_EDGE('',*,*,#143,.F.);
#112=ORIENTED_EDGE('',*,*,#142,.F.);
#113=ORIENTED_EDGE('',*,*,#143,.T.);
#114=ORIENTED_EDGE('',*,*,#144,.T.);
#115=ORIENTED_EDGE('',*,*,#145,.F.);
#116=ORIENTED_EDGE('',*,*,#144,.F.);
#117=ORIENTED_EDGE('',*,*,#145,.T.);
#118=EDGE_CURVE('',#146,#146,#170,.T.);
#119=EDGE_CURVE('',#147,#147,#171,.T.);
#120=EDGE_CURVE('',#148,#148,#172,.T.);
#121=EDGE_CURVE('',#149,#149,#173,.T.);
#122=EDGE_CURVE('',#150,#150,#174,.T.);
#123=EDGE_CURVE('',#151,#151,#175,.T.);
#124=EDGE_CURVE('',#152,#152,#176,.T.);
#125=EDGE_CURVE('',#153,#153,#177,.T.);
#126=EDGE_CURVE('',#154,#155,#30,.T.);
#127=EDGE_CURVE('',#156,#155,#31,.T.);
#128=EDGE_CURVE('',#157,#156,#32,.T.);
#129=EDGE_CURVE('',#157,#154,#33,.T.);
#130=EDGE_CURVE('',#155,#158,#34,.T.);
#131=EDGE_CURVE('',#159,#158,#35,.T.);
#132=EDGE_CURVE('',#156,#159,#36,.T.);
#133=EDGE_CURVE('',#158,#160,#37,.T.);
#134=EDGE_CURVE('',#161,#160,#38,.T.);
#135=EDGE_CURVE('',#159,#161,#39,.T.);
#136=EDGE_CURVE('',#160,#154,#40,.T.);
#137=EDGE_CURVE('',#161,#157,#41,.T.);
#138=EDGE_CURVE('',#162,#162,#178,.T.);
#139=EDGE_CURVE('',#163,#163,#179,.T.);
#140=EDGE_CURVE('',#164,#164,#180,.T.);
#141=EDGE_CURVE('',#165,#165,#181,.T.);
#142=EDGE_CURVE('',#166,#166,#182,.T.);
#143=EDGE_CURVE('',#167,#167,#183,.T.);
#144=EDGE_CURVE('',#168,#168,#184,.T.);
#145=EDGE_CURVE('',#169,#169,#185,.T.);
#146=VERTEX_POINT('',#509);
#147=VERTEX_POINT('',#512);
#148=VERTEX_POINT('',#515);
#149=VERTEX_POINT('',#518);
#150=VERTEX_POINT('',#521);
#151=VERTEX_POINT('',#524);
#152=VERTEX_POINT('',#527);
#153=VERTEX_POINT('',#530);
#154=VERTEX_POINT('',#533);
#155=VERTEX_POINT('',#534);
#156=VERTEX_POINT('',#536);
#157=VERTEX_POINT('',#538);
#158=VERTEX_POINT('',#542);
#159=VERTEX_POINT('',#544);
#160=VERTEX_POINT('',#548);
#161=VERTEX_POINT('',#550);
#162=VERTEX_POINT('',#560);
#163=VERTEX_POINT('',#562);
#164=VERTEX_POINT('',#567);
#165=VERTEX_POINT('',#569);
#166=VERTEX_POINT('',#574);
#167=VERTEX_POINT('',#576);
#168=VERTEX_POINT('',#581);
#169=VERTEX_POINT('',#583);
#170=CIRCLE('',#361,0.149999999999977);
#171=CIRCLE('',#363,0.149999999999977);
#172=CIRCLE('',#365,0.149999999999977);
#173=CIRCLE('',#367,0.149999999999977);
#174=CIRCLE('',#369,0.149999999999977);
#175=CIRCLE('',#371,0.149999999999977);
#176=CIRCLE('',#373,0.149999999999977);
#177=CIRCLE('',#375,0.149999999999977);
#178=CIRCLE('',#384,0.149999999999977);
#179=CIRCLE('',#385,0.149999999999977);
#180=CIRCLE('',#389,0.149999999999977);
#181=CIRCLE('',#390,0.149999999999977);
#182=CIRCLE('',#394,0.149999999999977);
#183=CIRCLE('',#395,0.149999999999977);
#184=CIRCLE('',#399,0.149999999999977);
#185=CIRCLE('',#400,0.149999999999977);
#186=EDGE_LOOP('',(#62));
#187=EDGE_LOOP('',(#63));
#188=EDGE_LOOP('',(#64));
#189=EDGE_LOOP('',(#65));
#190=EDGE_LOOP('',(#66));
#191=EDGE_LOOP('',(#67));
#192=EDGE_LOOP('',(#68));
#193=EDGE_LOOP('',(#69));
#194=EDGE_LOOP('',(#70));
#195=EDGE_LOOP('',(#71));
#196=EDGE_LOOP('',(#72));
#197=EDGE_LOOP('',(#73));
#198=EDGE_LOOP('',(#74,#75,#76,#77));
#199=EDGE_LOOP('',(#78,#79,#80,#81));
#200=EDGE_LOOP('',(#82,#83,#84,#85));
#201=EDGE_LOOP('',(#86,#87,#88,#89));
#202=EDGE_LOOP('',(#90,#91,#92,#93));
#203=EDGE_LOOP('',(#94));
#204=EDGE_LOOP('',(#95));
#205=EDGE_LOOP('',(#96));
#206=EDGE_LOOP('',(#97));
#207=EDGE_LOOP('',(#98,#99,#100,#101));
#208=EDGE_LOOP('',(#102));
#209=EDGE_LOOP('',(#103));
#210=EDGE_LOOP('',(#104));
#211=EDGE_LOOP('',(#105));
#212=EDGE_LOOP('',(#106));
#213=EDGE_LOOP('',(#107));
#214=EDGE_LOOP('',(#108));
#215=EDGE_LOOP('',(#109));
#216=EDGE_LOOP('',(#110));
#217=EDGE_LOOP('',(#111));
#218=EDGE_LOOP('',(#112));
#219=EDGE_LOOP('',(#113));
#220=EDGE_LOOP('',(#114));
#221=EDGE_LOOP('',(#115));
#222=EDGE_LOOP('',(#116));
#223=EDGE_LOOP('',(#117));
#224=FACE_BOUND('',#186,.T.);
#225=FACE_BOUND('',#187,.T.);
#226=FACE_BOUND('',#188,.T.);
#227=FACE_BOUND('',#189,.T.);
#228=FACE_BOUND('',#190,.T.);
#229=FACE_BOUND('',#191,.T.);
#230=FACE_BOUND('',#192,.T.);
#231=FACE_BOUND('',#193,.T.);
#232=FACE_BOUND('',#194,.T.);
#233=FACE_BOUND('',#195,.T.);
#234=FACE_BOUND('',#196,.T.);
#235=FACE_BOUND('',#197,.T.);
#236=FACE_BOUND('',#198,.T.);
#237=FACE_BOUND('',#199,.T.);
#238=FACE_BOUND('',#200,.T.);
#239=FACE_BOUND('',#201,.T.);
#240=FACE_BOUND('',#202,.T.);
#241=FACE_BOUND('',#203,.T.);
#242=FACE_BOUND('',#204,.T.);
#243=FACE_BOUND('',#205,.T.);
#244=FACE_BOUND('',#206,.T.);
#245=FACE_BOUND('',#207,.T.);
#246=FACE_BOUND('',#208,.T.);
#247=FACE_BOUND('',#209,.T.);
#248=FACE_BOUND('',#210,.T.);
#249=FACE_BOUND('',#211,.T.);
#250=FACE_BOUND('',#212,.T.);
#251=FACE_BOUND('',#213,.T.);
#252=FACE_BOUND('',#214,.T.);
#253=FACE_BOUND('',#215,.T.);
#254=FACE_BOUND('',#216,.T.);
#255=FACE_BOUND('',#217,.T.);
#256=FACE_BOUND('',#218,.T.);
#257=FACE_BOUND('',#219,.T.);
#258=FACE_BOUND('',#220,.T.);
#259=FACE_BOUND('',#221,.T.);
#260=FACE_BOUND('',#222,.T.);
#261=FACE_BOUND('',#223,.T.);
#262=PLANE('',#360);
#263=PLANE('',#364);
#264=PLANE('',#368);
#265=PLANE('',#372);
#266=PLANE('',#376);
#267=PLANE('',#377);
#268=PLANE('',#378);
#269=PLANE('',#379);
#270=PLANE('',#380);
#271=PLANE('',#381);
#272=PLANE('',#386);
#273=PLANE('',#387);
#274=PLANE('',#391);
#275=PLANE('',#392);
#276=PLANE('',#396);
#277=PLANE('',#397);
#278=PLANE('',#401);
#279=PLANE('',#402);
#280=ADVANCED_FACE('',(#224),#262,.T.);
#281=ADVANCED_FACE('',(#225,#226),#54,.F.);
#282=ADVANCED_FACE('',(#227),#263,.T.);
#283=ADVANCED_FACE('',(#228,#229),#55,.F.);
#284=ADVANCED_FACE('',(#230),#264,.T.);
#285=ADVANCED_FACE('',(#231,#232),#56,.F.);
#286=ADVANCED_FACE('',(#233),#265,.T.);
#287=ADVANCED_FACE('',(#234,#235),#57,.F.);
#288=ADVANCED_FACE('',(#236),#266,.F.);
#289=ADVANCED_FACE('',(#237),#267,.F.);
#290=ADVANCED_FACE('',(#238),#268,.F.);
#291=ADVANCED_FACE('',(#239),#269,.F.);
#292=ADVANCED_FACE('',(#240),#270,.T.);
#293=ADVANCED_FACE('',(#241,#242,#243,#244,#245),#271,.F.);
#294=ADVANCED_FACE('',(#246,#247),#58,.T.);
#295=ADVANCED_FACE('',(#248),#272,.F.);
#296=ADVANCED_FACE('',(#249),#273,.T.);
#297=ADVANCED_FACE('',(#250,#251),#59,.T.);
#298=ADVANCED_FACE('',(#252),#274,.F.);
#299=ADVANCED_FACE('',(#253),#275,.T.);
#300=ADVANCED_FACE('',(#254,#255),#60,.T.);
#301=ADVANCED_FACE('',(#256),#276,.F.);
#302=ADVANCED_FACE('',(#257),#277,.T.);
#303=ADVANCED_FACE('',(#258,#259),#61,.T.);
#304=ADVANCED_FACE('',(#260),#278,.F.);
#305=ADVANCED_FACE('',(#261),#279,.T.);
#306=CLOSED_SHELL('',(#280,#281,#282,#283,#284,#285,#286,#287,#288,#289,
#290,#291,#292,#293));
#307=CLOSED_SHELL('',(#294,#295,#296));
#308=CLOSED_SHELL('',(#297,#298,#299));
#309=CLOSED_SHELL('',(#300,#301,#302));
#310=CLOSED_SHELL('',(#303,#304,#305));
#311=STYLED_ITEM('',(#316),#348);
#312=STYLED_ITEM('',(#317),#349);
#313=STYLED_ITEM('',(#318),#350);
#314=STYLED_ITEM('',(#319),#351);
#315=STYLED_ITEM('',(#320),#352);
#316=PRESENTATION_STYLE_ASSIGNMENT((#321));
#317=PRESENTATION_STYLE_ASSIGNMENT((#322));
#318=PRESENTATION_STYLE_ASSIGNMENT((#323));
#319=PRESENTATION_STYLE_ASSIGNMENT((#324));
#320=PRESENTATION_STYLE_ASSIGNMENT((#325));
#321=SURFACE_STYLE_USAGE(.BOTH.,#326);
#322=SURFACE_STYLE_USAGE(.BOTH.,#327);
#323=SURFACE_STYLE_USAGE(.BOTH.,#328);
#324=SURFACE_STYLE_USAGE(.BOTH.,#329);
#325=SURFACE_STYLE_USAGE(.BOTH.,#330);
#326=SURFACE_SIDE_STYLE('',(#331));
#327=SURFACE_SIDE_STYLE('',(#332));
#328=SURFACE_SIDE_STYLE('',(#333));
#329=SURFACE_SIDE_STYLE('',(#334));
#330=SURFACE_SIDE_STYLE('',(#335));
#331=SURFACE_STYLE_FILL_AREA(#336);
#332=SURFACE_STYLE_FILL_AREA(#337);
#333=SURFACE_STYLE_FILL_AREA(#338);
#334=SURFACE_STYLE_FILL_AREA(#339);
#335=SURFACE_STYLE_FILL_AREA(#340);
#336=FILL_AREA_STYLE('',(#341));
#337=FILL_AREA_STYLE('',(#342));
#338=FILL_AREA_STYLE('',(#343));
#339=FILL_AREA_STYLE('',(#344));
#340=FILL_AREA_STYLE('',(#345));
#341=FILL_AREA_STYLE_COLOUR('',#346);
#342=FILL_AREA_STYLE_COLOUR('',#347);
#343=FILL_AREA_STYLE_COLOUR('',#347);
#344=FILL_AREA_STYLE_COLOUR('',#347);
#345=FILL_AREA_STYLE_COLOUR('',#347);
#346=COLOUR_RGB('',0.200000002980232,0.200000002980232,0.200000002980232);
#347=COLOUR_RGB('',0.87058824300766,0.633254885673523,0.172549024224281);
#348=MANIFOLD_SOLID_BREP('',#306);
#349=MANIFOLD_SOLID_BREP('',#307);
#350=MANIFOLD_SOLID_BREP('',#308);
#351=MANIFOLD_SOLID_BREP('',#309);
#352=MANIFOLD_SOLID_BREP('',#310);
#353=SHAPE_DEFINITION_REPRESENTATION(#598,#356);
#354=SHAPE_DEFINITION_REPRESENTATION(#597,#357);
#355=SHAPE_DEFINITION_REPRESENTATION(#600,#358);
#356=SHAPE_REPRESENTATION('Mold',(#359),#589);
#357=SHAPE_REPRESENTATION('X4-DSN1111-4',(#359,#382,#403),#588);
#358=SHAPE_REPRESENTATION('Pin',(#359),#590);
#359=AXIS2_PLACEMENT_3D('',#506,#404,#405);
#360=AXIS2_PLACEMENT_3D('',#507,#406,#407);
#361=AXIS2_PLACEMENT_3D('',#508,#408,#409);
#362=AXIS2_PLACEMENT_3D('',#510,#410,#411);
#363=AXIS2_PLACEMENT_3D('',#511,#412,#413);
#364=AXIS2_PLACEMENT_3D('',#513,#414,#415);
#365=AXIS2_PLACEMENT_3D('',#514,#416,#417);
#366=AXIS2_PLACEMENT_3D('',#516,#418,#419);
#367=AXIS2_PLACEMENT_3D('',#517,#420,#421);
#368=AXIS2_PLACEMENT_3D('',#519,#422,#423);
#369=AXIS2_PLACEMENT_3D('',#520,#424,#425);
#370=AXIS2_PLACEMENT_3D('',#522,#426,#427);
#371=AXIS2_PLACEMENT_3D('',#523,#428,#429);
#372=AXIS2_PLACEMENT_3D('',#525,#430,#431);
#373=AXIS2_PLACEMENT_3D('',#526,#432,#433);
#374=AXIS2_PLACEMENT_3D('',#528,#434,#435);
#375=AXIS2_PLACEMENT_3D('',#529,#436,#437);
#376=AXIS2_PLACEMENT_3D('',#531,#438,#439);
#377=AXIS2_PLACEMENT_3D('',#540,#444,#445);
#378=AXIS2_PLACEMENT_3D('',#546,#449,#450);
#379=AXIS2_PLACEMENT_3D('',#552,#454,#455);
#380=AXIS2_PLACEMENT_3D('',#555,#458,#459);
#381=AXIS2_PLACEMENT_3D('',#556,#460,#461);
#382=AXIS2_PLACEMENT_3D('',#557,#462,#463);
#383=AXIS2_PLACEMENT_3D('',#558,#464,#465);
#384=AXIS2_PLACEMENT_3D('',#559,#466,#467);
#385=AXIS2_PLACEMENT_3D('',#561,#468,#469);
#386=AXIS2_PLACEMENT_3D('',#563,#470,#471);
#387=AXIS2_PLACEMENT_3D('',#564,#472,#473);
#388=AXIS2_PLACEMENT_3D('',#565,#474,#475);
#389=AXIS2_PLACEMENT_3D('',#566,#476,#477);
#390=AXIS2_PLACEMENT_3D('',#568,#478,#479);
#391=AXIS2_PLACEMENT_3D('',#570,#480,#481);
#392=AXIS2_PLACEMENT_3D('',#571,#482,#483);
#393=AXIS2_PLACEMENT_3D('',#572,#484,#485);
#394=AXIS2_PLACEMENT_3D('',#573,#486,#487);
#395=AXIS2_PLACEMENT_3D('',#575,#488,#489);
#396=AXIS2_PLACEMENT_3D('',#577,#490,#491);
#397=AXIS2_PLACEMENT_3D('',#578,#492,#493);
#398=AXIS2_PLACEMENT_3D('',#579,#494,#495);
#399=AXIS2_PLACEMENT_3D('',#580,#496,#497);
#400=AXIS2_PLACEMENT_3D('',#582,#498,#499);
#401=AXIS2_PLACEMENT_3D('',#584,#500,#501);
#402=AXIS2_PLACEMENT_3D('',#585,#502,#503);
#403=AXIS2_PLACEMENT_3D('',#586,#504,#505);
#404=DIRECTION('',(0.,0.,1.));
#405=DIRECTION('',(1.,0.,0.));
#406=DIRECTION('',(0.,0.,1.));
#407=DIRECTION('',(1.,0.,0.));
#408=DIRECTION('',(0.,0.,1.));
#409=DIRECTION('',(1.,0.,0.));
#410=DIRECTION('',(0.,0.,1.));
#411=DIRECTION('',(1.,0.,0.));
#412=DIRECTION('',(0.,0.,-1.));
#413=DIRECTION('',(-1.,0.,0.));
#414=DIRECTION('',(0.,0.,1.));
#415=DIRECTION('',(1.,0.,0.));
#416=DIRECTION('',(0.,0.,1.));
#417=DIRECTION('',(1.,0.,0.));
#418=DIRECTION('',(0.,0.,1.));
#419=DIRECTION('',(1.,0.,0.));
#420=DIRECTION('',(0.,0.,-1.));
#421=DIRECTION('',(-1.,0.,0.));
#422=DIRECTION('',(0.,0.,1.));
#423=DIRECTION('',(1.,0.,0.));
#424=DIRECTION('',(0.,0.,1.));
#425=DIRECTION('',(1.,0.,0.));
#426=DIRECTION('',(0.,0.,1.));
#427=DIRECTION('',(1.,0.,0.));
#428=DIRECTION('',(0.,0.,-1.));
#429=DIRECTION('',(-1.,0.,0.));
#430=DIRECTION('',(0.,0.,1.));
#431=DIRECTION('',(1.,0.,0.));
#432=DIRECTION('',(0.,0.,1.));
#433=DIRECTION('',(1.,0.,0.));
#434=DIRECTION('',(0.,0.,1.));
#435=DIRECTION('',(1.,0.,0.));
#436=DIRECTION('',(0.,0.,-1.));
#437=DIRECTION('',(-1.,0.,0.));
#438=DIRECTION('',(-1.,0.,0.));
#439=DIRECTION('',(0.,0.,1.));
#440=DIRECTION('',(0.,-1.,0.));
#441=DIRECTION('',(0.,0.,1.));
#442=DIRECTION('',(0.,-1.,0.));
#443=DIRECTION('',(0.,0.,1.));
#444=DIRECTION('',(0.,1.,0.));
#445=DIRECTION('',(0.,0.,1.));
#446=DIRECTION('',(-1.,0.,0.));
#447=DIRECTION('',(0.,0.,1.));
#448=DIRECTION('',(-1.,0.,0.));
#449=DIRECTION('',(1.,0.,0.));
#450=DIRECTION('',(0.,0.,-1.));
#451=DIRECTION('',(0.,1.,0.));
#452=DIRECTION('',(0.,0.,1.));
#453=DIRECTION('',(0.,1.,0.));
#454=DIRECTION('',(0.,-1.,0.));
#455=DIRECTION('',(0.,0.,-1.));
#456=DIRECTION('',(1.,0.,0.));
#457=DIRECTION('',(1.,0.,0.));
#458=DIRECTION('',(0.,0.,-1.));
#459=DIRECTION('',(-1.,0.,0.));
#460=DIRECTION('',(0.,0.,-1.));
#461=DIRECTION('',(-1.,0.,0.));
#462=DIRECTION('',(0.,0.,1.));
#463=DIRECTION('',(1.,0.,0.));
#464=DIRECTION('',(0.,0.,1.));
#465=DIRECTION('',(1.,0.,0.));
#466=DIRECTION('',(0.,0.,1.));
#467=DIRECTION('',(1.,0.,0.));
#468=DIRECTION('',(0.,0.,1.));
#469=DIRECTION('',(1.,0.,0.));
#470=DIRECTION('',(0.,0.,1.));
#471=DIRECTION('',(1.,0.,0.));
#472=DIRECTION('',(0.,0.,1.));
#473=DIRECTION('',(1.,0.,0.));
#474=DIRECTION('',(0.,0.,1.));
#475=DIRECTION('',(1.,0.,0.));
#476=DIRECTION('',(0.,0.,1.));
#477=DIRECTION('',(1.,0.,0.));
#478=DIRECTION('',(0.,0.,1.));
#479=DIRECTION('',(1.,0.,0.));
#480=DIRECTION('',(0.,0.,1.));
#481=DIRECTION('',(1.,0.,0.));
#482=DIRECTION('',(0.,0.,1.));
#483=DIRECTION('',(1.,0.,0.));
#484=DIRECTION('',(0.,0.,1.));
#485=DIRECTION('',(1.,0.,0.));
#486=DIRECTION('',(0.,0.,1.));
#487=DIRECTION('',(1.,0.,0.));
#488=DIRECTION('',(0.,0.,1.));
#489=DIRECTION('',(1.,0.,0.));
#490=DIRECTION('',(0.,0.,1.));
#491=DIRECTION('',(1.,0.,0.));
#492=DIRECTION('',(0.,0.,1.));
#493=DIRECTION('',(1.,0.,0.));
#494=DIRECTION('',(0.,0.,1.));
#495=DIRECTION('',(1.,0.,0.));
#496=DIRECTION('',(0.,0.,1.));
#497=DIRECTION('',(1.,0.,0.));
#498=DIRECTION('',(0.,0.,1.));
#499=DIRECTION('',(1.,0.,0.));
#500=DIRECTION('',(0.,0.,1.));
#501=DIRECTION('',(1.,0.,0.));
#502=DIRECTION('',(0.,0.,1.));
#503=DIRECTION('',(1.,0.,0.));
#504=DIRECTION('',(0.,0.,1.));
#505=DIRECTION('',(1.,0.,0.));
#506=CARTESIAN_POINT('',(0.,0.,0.));
#507=CARTESIAN_POINT('',(0.324999999999853,-0.325000000000186,-0.01));
#508=CARTESIAN_POINT('',(0.324999999999853,-0.325000000000186,-0.01));
#509=CARTESIAN_POINT('',(0.474999999999831,-0.325000000000186,-0.01));
#510=CARTESIAN_POINT('',(0.324999999999853,-0.325000000000186,-0.01));
#511=CARTESIAN_POINT('',(0.324999999999853,-0.325000000000186,0.));
#512=CARTESIAN_POINT('',(0.174999999999876,-0.325000000000186,0.));
#513=CARTESIAN_POINT('',(0.324999999999853,0.324999999999909,-0.01));
#514=CARTESIAN_POINT('',(0.324999999999853,0.324999999999909,-0.01));
#515=CARTESIAN_POINT('',(0.474999999999831,0.324999999999909,-0.01));
#516=CARTESIAN_POINT('',(0.324999999999853,0.324999999999909,-0.01));
#517=CARTESIAN_POINT('',(0.324999999999853,0.324999999999909,0.));
#518=CARTESIAN_POINT('',(0.174999999999876,0.324999999999909,0.));
#519=CARTESIAN_POINT('',(-0.324999999999798,0.324999999999909,-0.01));
#520=CARTESIAN_POINT('',(-0.324999999999798,0.324999999999909,-0.01));
#521=CARTESIAN_POINT('',(-0.17499999999982,0.324999999999909,-0.01));
#522=CARTESIAN_POINT('',(-0.324999999999798,0.324999999999909,-0.01));
#523=CARTESIAN_POINT('',(-0.324999999999798,0.324999999999909,0.));
#524=CARTESIAN_POINT('',(-0.474999999999775,0.324999999999909,0.));
#525=CARTESIAN_POINT('',(-0.324999999999798,-0.325000000000186,-0.01));
#526=CARTESIAN_POINT('',(-0.324999999999798,-0.325000000000186,-0.01));
#527=CARTESIAN_POINT('',(-0.17499999999982,-0.325000000000186,-0.01));
#528=CARTESIAN_POINT('',(-0.324999999999798,-0.325000000000186,-0.01));
#529=CARTESIAN_POINT('',(-0.324999999999798,-0.325000000000186,0.));
#530=CARTESIAN_POINT('',(-0.474999999999775,-0.325000000000186,0.));
#531=CARTESIAN_POINT('',(0.574999999999826,0.574999999999937,-0.12));
#532=CARTESIAN_POINT('',(0.574999999999826,0.574999999999937,0.));
#533=CARTESIAN_POINT('',(0.574999999999826,0.574999999999937,0.));
#534=CARTESIAN_POINT('',(0.574999999999826,-0.574999999999937,0.));
#535=CARTESIAN_POINT('',(0.574999999999826,-0.574999999999937,-0.12));
#536=CARTESIAN_POINT('',(0.574999999999826,-0.574999999999937,-0.12));
#537=CARTESIAN_POINT('',(0.574999999999826,0.574999999999937,-0.12));
#538=CARTESIAN_POINT('',(0.574999999999826,0.574999999999937,-0.12));
#539=CARTESIAN_POINT('',(0.574999999999826,0.574999999999937,-0.12));
#540=CARTESIAN_POINT('',(0.574999999999826,-0.574999999999937,-0.12));
#541=CARTESIAN_POINT('',(0.574999999999826,-0.574999999999937,0.));
#542=CARTESIAN_POINT('',(-0.574999999999826,-0.574999999999937,0.));
#543=CARTESIAN_POINT('',(-0.574999999999826,-0.574999999999937,-0.12));
#544=CARTESIAN_POINT('',(-0.574999999999826,-0.574999999999937,-0.12));
#545=CARTESIAN_POINT('',(0.574999999999826,-0.574999999999937,-0.12));
#546=CARTESIAN_POINT('',(-0.574999999999826,-0.574999999999937,-0.12));
#547=CARTESIAN_POINT('',(-0.574999999999826,-0.574999999999937,0.));
#548=CARTESIAN_POINT('',(-0.574999999999826,0.574999999999937,0.));
#549=CARTESIAN_POINT('',(-0.574999999999826,0.574999999999937,-0.12));
#550=CARTESIAN_POINT('',(-0.574999999999826,0.574999999999937,-0.12));
#551=CARTESIAN_POINT('',(-0.574999999999826,-0.574999999999937,-0.12));
#552=CARTESIAN_POINT('',(-0.574999999999826,0.574999999999937,-0.12));
#553=CARTESIAN_POINT('',(-0.574999999999826,0.574999999999937,0.));
#554=CARTESIAN_POINT('',(-0.574999999999826,0.574999999999937,-0.12));
#555=CARTESIAN_POINT('',(0.,0.,-0.12));
#556=CARTESIAN_POINT('',(0.,0.,0.));
#557=CARTESIAN_POINT('',(0.,0.,0.));
#558=CARTESIAN_POINT('',(-0.324999999999798,-0.325000000000186,-0.01));
#559=CARTESIAN_POINT('',(-0.324999999999798,-0.325000000000186,-0.01));
#560=CARTESIAN_POINT('',(-0.17499999999982,-0.325000000000186,-0.01));
#561=CARTESIAN_POINT('',(-0.324999999999798,-0.325000000000186,0.));
#562=CARTESIAN_POINT('',(-0.17499999999982,-0.325000000000186,0.));
#563=CARTESIAN_POINT('',(-0.324999999999798,-0.325000000000186,-0.01));
#564=CARTESIAN_POINT('',(-0.324999999999798,-0.325000000000186,0.));
#565=CARTESIAN_POINT('',(-0.324999999999798,0.324999999999909,-0.01));
#566=CARTESIAN_POINT('',(-0.324999999999798,0.324999999999909,-0.01));
#567=CARTESIAN_POINT('',(-0.17499999999982,0.324999999999909,-0.01));
#568=CARTESIAN_POINT('',(-0.324999999999798,0.324999999999909,0.));
#569=CARTESIAN_POINT('',(-0.17499999999982,0.324999999999909,0.));
#570=CARTESIAN_POINT('',(-0.324999999999798,0.324999999999909,-0.01));
#571=CARTESIAN_POINT('',(-0.324999999999798,0.324999999999909,0.));
#572=CARTESIAN_POINT('',(0.324999999999853,0.324999999999909,-0.01));
#573=CARTESIAN_POINT('',(0.324999999999853,0.324999999999909,-0.01));
#574=CARTESIAN_POINT('',(0.474999999999831,0.324999999999909,-0.01));
#575=CARTESIAN_POINT('',(0.324999999999853,0.324999999999909,0.));
#576=CARTESIAN_POINT('',(0.474999999999831,0.324999999999909,0.));
#577=CARTESIAN_POINT('',(0.324999999999853,0.324999999999909,-0.01));
#578=CARTESIAN_POINT('',(0.324999999999853,0.324999999999909,0.));
#579=CARTESIAN_POINT('',(0.324999999999853,-0.325000000000186,-0.01));
#580=CARTESIAN_POINT('',(0.324999999999853,-0.325000000000186,-0.01));
#581=CARTESIAN_POINT('',(0.474999999999831,-0.325000000000186,-0.01));
#582=CARTESIAN_POINT('',(0.324999999999853,-0.325000000000186,0.));
#583=CARTESIAN_POINT('',(0.474999999999831,-0.325000000000186,0.));
#584=CARTESIAN_POINT('',(0.324999999999853,-0.325000000000186,-0.01));
#585=CARTESIAN_POINT('',(0.324999999999853,-0.325000000000186,0.));
#586=CARTESIAN_POINT('',(0.,0.,0.));
#587=MECHANICAL_DESIGN_GEOMETRIC_PRESENTATION_REPRESENTATION('',(#311,#312,
#313,#314,#315),#588);
#588=(
GEOMETRIC_REPRESENTATION_CONTEXT(3)
GLOBAL_UNCERTAINTY_ASSIGNED_CONTEXT((#591))
GLOBAL_UNIT_ASSIGNED_CONTEXT((#596,#595,#594))
REPRESENTATION_CONTEXT('X4-DSN1111-4','TOP_LEVEL_ASSEMBLY_PART')
);
#589=(
GEOMETRIC_REPRESENTATION_CONTEXT(3)
GLOBAL_UNCERTAINTY_ASSIGNED_CONTEXT((#592))
GLOBAL_UNIT_ASSIGNED_CONTEXT((#596,#595,#594))
REPRESENTATION_CONTEXT('Mold','COMPONENT_PART')
);
#590=(
GEOMETRIC_REPRESENTATION_CONTEXT(3)
GLOBAL_UNCERTAINTY_ASSIGNED_CONTEXT((#593))
GLOBAL_UNIT_ASSIGNED_CONTEXT((#596,#595,#594))
REPRESENTATION_CONTEXT('Pin','COMPONENT_PART')
);
#591=UNCERTAINTY_MEASURE_WITH_UNIT(LENGTH_MEASURE(0.005),#596,
'DISTANCE_ACCURACY_VALUE','Maximum Tolerance applied to model');
#592=UNCERTAINTY_MEASURE_WITH_UNIT(LENGTH_MEASURE(0.005),#596,
'DISTANCE_ACCURACY_VALUE','Maximum Tolerance applied to model');
#593=UNCERTAINTY_MEASURE_WITH_UNIT(LENGTH_MEASURE(0.005),#596,
'DISTANCE_ACCURACY_VALUE','Maximum Tolerance applied to model');
#594=(
NAMED_UNIT(*)
SI_UNIT($,.STERADIAN.)
SOLID_ANGLE_UNIT()
);
#595=(
NAMED_UNIT(*)
PLANE_ANGLE_UNIT()
SI_UNIT($,.RADIAN.)
);
#596=(
LENGTH_UNIT()
NAMED_UNIT(*)
SI_UNIT(.MILLI.,.METRE.)
);
#597=PRODUCT_DEFINITION_SHAPE('','',#602);
#598=PRODUCT_DEFINITION_SHAPE('','',#603);
#599=PRODUCT_DEFINITION_SHAPE(' ','NAUO PRDDFN',#20);
#600=PRODUCT_DEFINITION_SHAPE('','',#604);
#601=PRODUCT_DEFINITION_SHAPE(' ','NAUO PRDDFN',#21);
#602=PRODUCT_DEFINITION('','',#608,#605);
#603=PRODUCT_DEFINITION('','',#609,#606);
#604=PRODUCT_DEFINITION('','',#610,#607);
#605=PRODUCT_DEFINITION_CONTEXT('',#624,'design');
#606=PRODUCT_DEFINITION_CONTEXT('',#624,'design');
#607=PRODUCT_DEFINITION_CONTEXT('',#624,'design');
#608=PRODUCT_DEFINITION_FORMATION_WITH_SPECIFIED_SOURCE('','',#614,
 .NOT_KNOWN.);
#609=PRODUCT_DEFINITION_FORMATION_WITH_SPECIFIED_SOURCE('','',#615,
 .NOT_KNOWN.);
#610=PRODUCT_DEFINITION_FORMATION_WITH_SPECIFIED_SOURCE('','',#616,
 .NOT_KNOWN.);
#611=PRODUCT_RELATED_PRODUCT_CATEGORY('','',(#614));
#612=PRODUCT_RELATED_PRODUCT_CATEGORY('','',(#615));
#613=PRODUCT_RELATED_PRODUCT_CATEGORY('','',(#616));
#614=PRODUCT('X4-DSN1111-4','X4-DSN1111-4','X4-DSN1111-4',(#620));
#615=PRODUCT('Mold','Mold','Mold',(#621));
#616=PRODUCT('Pin','Pin','Pin',(#622));
#617=PRODUCT_CATEGORY('','');
#618=PRODUCT_CATEGORY('','');
#619=PRODUCT_CATEGORY('','');
#620=PRODUCT_CONTEXT('',#624,'mechanical');
#621=PRODUCT_CONTEXT('',#624,'mechanical');
#622=PRODUCT_CONTEXT('',#624,'mechanical');
#623=APPLICATION_PROTOCOL_DEFINITION('international standard',
'automotive_design',2010,#624);
#624=APPLICATION_CONTEXT(
'core data for automotive mechanical design processes');
ENDSEC;
END-ISO-10303-21;
