ISO-10303-21;
HEADER;
/* Generated by software containing ST-Developer
 * from STEP Tools, Inc. (www.steptools.com) 
 */
/* OPTION: strings as raw bytes, not using required /X/ escapes */

FILE_DESCRIPTION(
/* description */ ('Unknown'),
/* implementation_level */ '2;1');

FILE_NAME(
/* name */ 'X3-TSN2121-2',
/* time_stamp */ '2023-04-11T10:13:57+08:00',
/* author */ ('Unknown'),
/* organization */ ('Unknown'),
/* preprocessor_version */ 'ST-DEVELOPER v18.102',
/* originating_system */ 'Solid Edge',
/* authorisation */ 'Unknown');

FILE_SCHEMA (('AUTOMOTIVE_DESIGN {1 0 10303 214 3 1 1}'));
ENDSEC;

DATA;
#10=PROPERTY_DEFINITION_REPRESENTATION(#14,#12);
#11=PROPERTY_DEFINITION_REPRESENTATION(#15,#13);
#12=REPRESENTATION('',(#16),#520);
#13=REPRESENTATION('',(#17),#520);
#14=PROPERTY_DEFINITION('pmi validation property','',#529);
#15=PROPERTY_DEFINITION('pmi validation property','',#529);
#16=VALUE_REPRESENTATION_ITEM('number of annotations',COUNT_MEASURE(0.));
#17=VALUE_REPRESENTATION_ITEM('number of views',COUNT_MEASURE(0.));
#18=VERTEX_LOOP('',#144);
#19=VERTEX_LOOP('',#145);
#20=VERTEX_LOOP('',#146);
#21=VERTEX_LOOP('',#147);
#22=VERTEX_LOOP('',#148);
#23=VERTEX_LOOP('',#149);
#24=VERTEX_LOOP('',#150);
#25=VERTEX_LOOP('',#151);
#26=CONTEXT_DEPENDENT_SHAPE_REPRESENTATION(#30,#531);
#27=CONTEXT_DEPENDENT_SHAPE_REPRESENTATION(#31,#533);
#28=NEXT_ASSEMBLY_USAGE_OCCURRENCE('Compound','Compound','Compound',#534,
#535,'');
#29=NEXT_ASSEMBLY_USAGE_OCCURRENCE('BALL','BALL','BALL',#534,#536,'');
#30=(
REPRESENTATION_RELATIONSHIP(' ',' ',#336,#337)
REPRESENTATION_RELATIONSHIP_WITH_TRANSFORMATION(#32)
SHAPE_REPRESENTATION_RELATIONSHIP()
);
#31=(
REPRESENTATION_RELATIONSHIP(' ',' ',#338,#337)
REPRESENTATION_RELATIONSHIP_WITH_TRANSFORMATION(#33)
SHAPE_REPRESENTATION_RELATIONSHIP()
);
#32=ITEM_DEFINED_TRANSFORMATION(' ',' ',#339,#362);
#33=ITEM_DEFINED_TRANSFORMATION(' ',' ',#339,#371);
#34=SHAPE_REPRESENTATION_RELATIONSHIP('','',#336,#36);
#35=SHAPE_REPRESENTATION_RELATIONSHIP('','',#338,#37);
#36=ADVANCED_BREP_SHAPE_REPRESENTATION('',(#324),#521);
#37=ADVANCED_BREP_SHAPE_REPRESENTATION('',(#325,#326,#327,#328,#329,#330,
#331,#332),#522);
#38=LINE('',#476,#50);
#39=LINE('',#479,#51);
#40=LINE('',#481,#52);
#41=LINE('',#483,#53);
#42=LINE('',#485,#54);
#43=LINE('',#488,#55);
#44=LINE('',#490,#56);
#45=LINE('',#492,#57);
#46=LINE('',#494,#58);
#47=LINE('',#495,#59);
#48=LINE('',#497,#60);
#49=LINE('',#498,#61);
#50=VECTOR('',#408,1000.);
#51=VECTOR('',#409,1000.);
#52=VECTOR('',#410,1000.);
#53=VECTOR('',#411,1000.);
#54=VECTOR('',#414,1000.);
#55=VECTOR('',#415,1000.);
#56=VECTOR('',#416,1000.);
#57=VECTOR('',#417,1000.);
#58=VECTOR('',#420,1000.);
#59=VECTOR('',#421,1000.);
#60=VECTOR('',#424,1000.);
#61=VECTOR('',#425,1000.);
#62=PLANE('',#356);
#63=PLANE('',#357);
#64=PLANE('',#358);
#65=PLANE('',#359);
#66=PLANE('',#360);
#67=PLANE('',#361);
#68=ORIENTED_EDGE('',*,*,#108,.T.);
#69=ORIENTED_EDGE('',*,*,#109,.T.);
#70=ORIENTED_EDGE('',*,*,#110,.T.);
#71=ORIENTED_EDGE('',*,*,#111,.T.);
#72=ORIENTED_EDGE('',*,*,#112,.T.);
#73=ORIENTED_EDGE('',*,*,#113,.T.);
#74=ORIENTED_EDGE('',*,*,#114,.T.);
#75=ORIENTED_EDGE('',*,*,#115,.T.);
#76=ORIENTED_EDGE('',*,*,#116,.T.);
#77=ORIENTED_EDGE('',*,*,#117,.F.);
#78=ORIENTED_EDGE('',*,*,#118,.F.);
#79=ORIENTED_EDGE('',*,*,#119,.F.);
#80=ORIENTED_EDGE('',*,*,#120,.T.);
#81=ORIENTED_EDGE('',*,*,#121,.F.);
#82=ORIENTED_EDGE('',*,*,#122,.F.);
#83=ORIENTED_EDGE('',*,*,#123,.F.);
#84=ORIENTED_EDGE('',*,*,#108,.F.);
#85=ORIENTED_EDGE('',*,*,#109,.F.);
#86=ORIENTED_EDGE('',*,*,#110,.F.);
#87=ORIENTED_EDGE('',*,*,#111,.F.);
#88=ORIENTED_EDGE('',*,*,#112,.F.);
#89=ORIENTED_EDGE('',*,*,#113,.F.);
#90=ORIENTED_EDGE('',*,*,#114,.F.);
#91=ORIENTED_EDGE('',*,*,#115,.F.);
#92=ORIENTED_EDGE('',*,*,#118,.T.);
#93=ORIENTED_EDGE('',*,*,#124,.F.);
#94=ORIENTED_EDGE('',*,*,#122,.T.);
#95=ORIENTED_EDGE('',*,*,#125,.F.);
#96=ORIENTED_EDGE('',*,*,#116,.F.);
#97=ORIENTED_EDGE('',*,*,#126,.F.);
#98=ORIENTED_EDGE('',*,*,#120,.F.);
#99=ORIENTED_EDGE('',*,*,#127,.F.);
#100=ORIENTED_EDGE('',*,*,#121,.T.);
#101=ORIENTED_EDGE('',*,*,#126,.T.);
#102=ORIENTED_EDGE('',*,*,#119,.T.);
#103=ORIENTED_EDGE('',*,*,#125,.T.);
#104=ORIENTED_EDGE('',*,*,#117,.T.);
#105=ORIENTED_EDGE('',*,*,#127,.T.);
#106=ORIENTED_EDGE('',*,*,#123,.T.);
#107=ORIENTED_EDGE('',*,*,#124,.T.);
#108=EDGE_CURVE('',#128,#128,#152,.T.);
#109=EDGE_CURVE('',#129,#129,#153,.T.);
#110=EDGE_CURVE('',#130,#130,#154,.T.);
#111=EDGE_CURVE('',#131,#131,#155,.T.);
#112=EDGE_CURVE('',#132,#132,#156,.T.);
#113=EDGE_CURVE('',#133,#133,#157,.T.);
#114=EDGE_CURVE('',#134,#134,#158,.T.);
#115=EDGE_CURVE('',#135,#135,#159,.T.);
#116=EDGE_CURVE('',#136,#137,#38,.T.);
#117=EDGE_CURVE('',#138,#137,#39,.T.);
#118=EDGE_CURVE('',#139,#138,#40,.T.);
#119=EDGE_CURVE('',#136,#139,#41,.T.);
#120=EDGE_CURVE('',#140,#141,#42,.T.);
#121=EDGE_CURVE('',#142,#141,#43,.T.);
#122=EDGE_CURVE('',#143,#142,#44,.T.);
#123=EDGE_CURVE('',#140,#143,#45,.T.);
#124=EDGE_CURVE('',#143,#138,#46,.T.);
#125=EDGE_CURVE('',#139,#142,#47,.T.);
#126=EDGE_CURVE('',#141,#136,#48,.T.);
#127=EDGE_CURVE('',#137,#140,#49,.T.);
#128=VERTEX_POINT('',#453);
#129=VERTEX_POINT('',#456);
#130=VERTEX_POINT('',#459);
#131=VERTEX_POINT('',#462);
#132=VERTEX_POINT('',#465);
#133=VERTEX_POINT('',#468);
#134=VERTEX_POINT('',#471);
#135=VERTEX_POINT('',#474);
#136=VERTEX_POINT('',#477);
#137=VERTEX_POINT('',#478);
#138=VERTEX_POINT('',#480);
#139=VERTEX_POINT('',#482);
#140=VERTEX_POINT('',#486);
#141=VERTEX_POINT('',#487);
#142=VERTEX_POINT('',#489);
#143=VERTEX_POINT('',#491);
#144=VERTEX_POINT('',#503);
#145=VERTEX_POINT('',#505);
#146=VERTEX_POINT('',#507);
#147=VERTEX_POINT('',#509);
#148=VERTEX_POINT('',#511);
#149=VERTEX_POINT('',#513);
#150=VERTEX_POINT('',#515);
#151=VERTEX_POINT('',#517);
#152=CIRCLE('',#341,0.101304283426805);
#153=CIRCLE('',#343,0.101304283426805);
#154=CIRCLE('',#345,0.101304283426805);
#155=CIRCLE('',#347,0.101304283426805);
#156=CIRCLE('',#349,0.101304283426805);
#157=CIRCLE('',#351,0.101304283426805);
#158=CIRCLE('',#353,0.101304283426805);
#159=CIRCLE('',#355,0.101304283426805);
#160=EDGE_LOOP('',(#68));
#161=EDGE_LOOP('',(#69));
#162=EDGE_LOOP('',(#70));
#163=EDGE_LOOP('',(#71));
#164=EDGE_LOOP('',(#72));
#165=EDGE_LOOP('',(#73));
#166=EDGE_LOOP('',(#74));
#167=EDGE_LOOP('',(#75));
#168=EDGE_LOOP('',(#76,#77,#78,#79));
#169=EDGE_LOOP('',(#80,#81,#82,#83));
#170=EDGE_LOOP('',(#84));
#171=EDGE_LOOP('',(#85));
#172=EDGE_LOOP('',(#86));
#173=EDGE_LOOP('',(#87));
#174=EDGE_LOOP('',(#88));
#175=EDGE_LOOP('',(#89));
#176=EDGE_LOOP('',(#90));
#177=EDGE_LOOP('',(#91));
#178=EDGE_LOOP('',(#92,#93,#94,#95));
#179=EDGE_LOOP('',(#96,#97,#98,#99));
#180=EDGE_LOOP('',(#100,#101,#102,#103));
#181=EDGE_LOOP('',(#104,#105,#106,#107));
#182=FACE_BOUND('',#160,.T.);
#183=FACE_BOUND('',#161,.T.);
#184=FACE_BOUND('',#162,.T.);
#185=FACE_BOUND('',#163,.T.);
#186=FACE_BOUND('',#164,.T.);
#187=FACE_BOUND('',#165,.T.);
#188=FACE_BOUND('',#166,.T.);
#189=FACE_BOUND('',#167,.T.);
#190=FACE_BOUND('',#168,.T.);
#191=FACE_BOUND('',#169,.T.);
#192=FACE_BOUND('',#170,.T.);
#193=FACE_BOUND('',#171,.T.);
#194=FACE_BOUND('',#172,.T.);
#195=FACE_BOUND('',#173,.T.);
#196=FACE_BOUND('',#174,.T.);
#197=FACE_BOUND('',#175,.T.);
#198=FACE_BOUND('',#176,.T.);
#199=FACE_BOUND('',#177,.T.);
#200=FACE_BOUND('',#178,.T.);
#201=FACE_BOUND('',#179,.T.);
#202=FACE_BOUND('',#180,.T.);
#203=FACE_BOUND('',#181,.T.);
#204=FACE_BOUND('',#18,.T.);
#205=FACE_BOUND('',#19,.T.);
#206=FACE_BOUND('',#20,.T.);
#207=FACE_BOUND('',#21,.T.);
#208=FACE_BOUND('',#22,.T.);
#209=FACE_BOUND('',#23,.T.);
#210=FACE_BOUND('',#24,.T.);
#211=FACE_BOUND('',#25,.T.);
#212=SPHERICAL_SURFACE('',#340,0.115);
#213=SPHERICAL_SURFACE('',#342,0.115);
#214=SPHERICAL_SURFACE('',#344,0.115);
#215=SPHERICAL_SURFACE('',#346,0.115);
#216=SPHERICAL_SURFACE('',#348,0.115);
#217=SPHERICAL_SURFACE('',#350,0.115);
#218=SPHERICAL_SURFACE('',#352,0.115);
#219=SPHERICAL_SURFACE('',#354,0.115);
#220=SPHERICAL_SURFACE('',#363,0.115);
#221=SPHERICAL_SURFACE('',#364,0.115);
#222=SPHERICAL_SURFACE('',#365,0.115);
#223=SPHERICAL_SURFACE('',#366,0.115);
#224=SPHERICAL_SURFACE('',#367,0.115);
#225=SPHERICAL_SURFACE('',#368,0.115);
#226=SPHERICAL_SURFACE('',#369,0.115);
#227=SPHERICAL_SURFACE('',#370,0.115);
#228=ADVANCED_FACE('',(#182),#212,.F.);
#229=ADVANCED_FACE('',(#183),#213,.F.);
#230=ADVANCED_FACE('',(#184),#214,.F.);
#231=ADVANCED_FACE('',(#185),#215,.F.);
#232=ADVANCED_FACE('',(#186),#216,.F.);
#233=ADVANCED_FACE('',(#187),#217,.F.);
#234=ADVANCED_FACE('',(#188),#218,.F.);
#235=ADVANCED_FACE('',(#189),#219,.F.);
#236=ADVANCED_FACE('',(#190),#62,.F.);
#237=ADVANCED_FACE('',(#191),#63,.F.);
#238=ADVANCED_FACE('',(#192,#193,#194,#195,#196,#197,#198,#199,#200),#64,
 .T.);
#239=ADVANCED_FACE('',(#201),#65,.F.);
#240=ADVANCED_FACE('',(#202),#66,.T.);
#241=ADVANCED_FACE('',(#203),#67,.T.);
#242=ADVANCED_FACE('',(#204),#220,.T.);
#243=ADVANCED_FACE('',(#205),#221,.T.);
#244=ADVANCED_FACE('',(#206),#222,.T.);
#245=ADVANCED_FACE('',(#207),#223,.T.);
#246=ADVANCED_FACE('',(#208),#224,.T.);
#247=ADVANCED_FACE('',(#209),#225,.T.);
#248=ADVANCED_FACE('',(#210),#226,.T.);
#249=ADVANCED_FACE('',(#211),#227,.T.);
#250=CLOSED_SHELL('',(#228,#229,#230,#231,#232,#233,#234,#235,#236,#237,
#238,#239,#240,#241));
#251=CLOSED_SHELL('',(#242));
#252=CLOSED_SHELL('',(#243));
#253=CLOSED_SHELL('',(#244));
#254=CLOSED_SHELL('',(#245));
#255=CLOSED_SHELL('',(#246));
#256=CLOSED_SHELL('',(#247));
#257=CLOSED_SHELL('',(#248));
#258=CLOSED_SHELL('',(#249));
#259=STYLED_ITEM('',(#268),#324);
#260=STYLED_ITEM('',(#269),#325);
#261=STYLED_ITEM('',(#270),#326);
#262=STYLED_ITEM('',(#271),#327);
#263=STYLED_ITEM('',(#272),#328);
#264=STYLED_ITEM('',(#273),#329);
#265=STYLED_ITEM('',(#274),#330);
#266=STYLED_ITEM('',(#275),#331);
#267=STYLED_ITEM('',(#276),#332);
#268=PRESENTATION_STYLE_ASSIGNMENT((#277));
#269=PRESENTATION_STYLE_ASSIGNMENT((#278));
#270=PRESENTATION_STYLE_ASSIGNMENT((#279));
#271=PRESENTATION_STYLE_ASSIGNMENT((#280));
#272=PRESENTATION_STYLE_ASSIGNMENT((#281));
#273=PRESENTATION_STYLE_ASSIGNMENT((#282));
#274=PRESENTATION_STYLE_ASSIGNMENT((#283));
#275=PRESENTATION_STYLE_ASSIGNMENT((#284));
#276=PRESENTATION_STYLE_ASSIGNMENT((#285));
#277=SURFACE_STYLE_USAGE(.BOTH.,#286);
#278=SURFACE_STYLE_USAGE(.BOTH.,#287);
#279=SURFACE_STYLE_USAGE(.BOTH.,#288);
#280=SURFACE_STYLE_USAGE(.BOTH.,#289);
#281=SURFACE_STYLE_USAGE(.BOTH.,#290);
#282=SURFACE_STYLE_USAGE(.BOTH.,#291);
#283=SURFACE_STYLE_USAGE(.BOTH.,#292);
#284=SURFACE_STYLE_USAGE(.BOTH.,#293);
#285=SURFACE_STYLE_USAGE(.BOTH.,#294);
#286=SURFACE_SIDE_STYLE('',(#295));
#287=SURFACE_SIDE_STYLE('',(#296));
#288=SURFACE_SIDE_STYLE('',(#297));
#289=SURFACE_SIDE_STYLE('',(#298));
#290=SURFACE_SIDE_STYLE('',(#299));
#291=SURFACE_SIDE_STYLE('',(#300));
#292=SURFACE_SIDE_STYLE('',(#301));
#293=SURFACE_SIDE_STYLE('',(#302));
#294=SURFACE_SIDE_STYLE('',(#303));
#295=SURFACE_STYLE_FILL_AREA(#304);
#296=SURFACE_STYLE_FILL_AREA(#305);
#297=SURFACE_STYLE_FILL_AREA(#306);
#298=SURFACE_STYLE_FILL_AREA(#307);
#299=SURFACE_STYLE_FILL_AREA(#308);
#300=SURFACE_STYLE_FILL_AREA(#309);
#301=SURFACE_STYLE_FILL_AREA(#310);
#302=SURFACE_STYLE_FILL_AREA(#311);
#303=SURFACE_STYLE_FILL_AREA(#312);
#304=FILL_AREA_STYLE('',(#313));
#305=FILL_AREA_STYLE('',(#314));
#306=FILL_AREA_STYLE('',(#315));
#307=FILL_AREA_STYLE('',(#316));
#308=FILL_AREA_STYLE('',(#317));
#309=FILL_AREA_STYLE('',(#318));
#310=FILL_AREA_STYLE('',(#319));
#311=FILL_AREA_STYLE('',(#320));
#312=FILL_AREA_STYLE('',(#321));
#313=FILL_AREA_STYLE_COLOUR('',#322);
#314=FILL_AREA_STYLE_COLOUR('',#323);
#315=FILL_AREA_STYLE_COLOUR('',#323);
#316=FILL_AREA_STYLE_COLOUR('',#323);
#317=FILL_AREA_STYLE_COLOUR('',#323);
#318=FILL_AREA_STYLE_COLOUR('',#323);
#319=FILL_AREA_STYLE_COLOUR('',#323);
#320=FILL_AREA_STYLE_COLOUR('',#323);
#321=FILL_AREA_STYLE_COLOUR('',#323);
#322=COLOUR_RGB('',0.200000002980232,0.200000002980232,0.200000002980232);
#323=COLOUR_RGB('',0.819999992847443,0.819999992847443,0.819999992847443);
#324=MANIFOLD_SOLID_BREP('',#250);
#325=MANIFOLD_SOLID_BREP('',#251);
#326=MANIFOLD_SOLID_BREP('',#252);
#327=MANIFOLD_SOLID_BREP('',#253);
#328=MANIFOLD_SOLID_BREP('',#254);
#329=MANIFOLD_SOLID_BREP('',#255);
#330=MANIFOLD_SOLID_BREP('',#256);
#331=MANIFOLD_SOLID_BREP('',#257);
#332=MANIFOLD_SOLID_BREP('',#258);
#333=SHAPE_DEFINITION_REPRESENTATION(#530,#336);
#334=SHAPE_DEFINITION_REPRESENTATION(#529,#337);
#335=SHAPE_DEFINITION_REPRESENTATION(#532,#338);
#336=SHAPE_REPRESENTATION('Compound',(#339),#521);
#337=SHAPE_REPRESENTATION('X3-TSN2121-2',(#339,#362,#371),#520);
#338=SHAPE_REPRESENTATION('BALL',(#339),#522);
#339=AXIS2_PLACEMENT_3D('',#450,#372,#373);
#340=AXIS2_PLACEMENT_3D('',#451,#374,#375);
#341=AXIS2_PLACEMENT_3D('',#452,#376,#377);
#342=AXIS2_PLACEMENT_3D('',#454,#378,#379);
#343=AXIS2_PLACEMENT_3D('',#455,#380,#381);
#344=AXIS2_PLACEMENT_3D('',#457,#382,#383);
#345=AXIS2_PLACEMENT_3D('',#458,#384,#385);
#346=AXIS2_PLACEMENT_3D('',#460,#386,#387);
#347=AXIS2_PLACEMENT_3D('',#461,#388,#389);
#348=AXIS2_PLACEMENT_3D('',#463,#390,#391);
#349=AXIS2_PLACEMENT_3D('',#464,#392,#393);
#350=AXIS2_PLACEMENT_3D('',#466,#394,#395);
#351=AXIS2_PLACEMENT_3D('',#467,#396,#397);
#352=AXIS2_PLACEMENT_3D('',#469,#398,#399);
#353=AXIS2_PLACEMENT_3D('',#470,#400,#401);
#354=AXIS2_PLACEMENT_3D('',#472,#402,#403);
#355=AXIS2_PLACEMENT_3D('',#473,#404,#405);
#356=AXIS2_PLACEMENT_3D('',#475,#406,#407);
#357=AXIS2_PLACEMENT_3D('',#484,#412,#413);
#358=AXIS2_PLACEMENT_3D('',#493,#418,#419);
#359=AXIS2_PLACEMENT_3D('',#496,#422,#423);
#360=AXIS2_PLACEMENT_3D('',#499,#426,#427);
#361=AXIS2_PLACEMENT_3D('',#500,#428,#429);
#362=AXIS2_PLACEMENT_3D('',#501,#430,#431);
#363=AXIS2_PLACEMENT_3D('',#502,#432,#433);
#364=AXIS2_PLACEMENT_3D('',#504,#434,#435);
#365=AXIS2_PLACEMENT_3D('',#506,#436,#437);
#366=AXIS2_PLACEMENT_3D('',#508,#438,#439);
#367=AXIS2_PLACEMENT_3D('',#510,#440,#441);
#368=AXIS2_PLACEMENT_3D('',#512,#442,#443);
#369=AXIS2_PLACEMENT_3D('',#514,#444,#445);
#370=AXIS2_PLACEMENT_3D('',#516,#446,#447);
#371=AXIS2_PLACEMENT_3D('',#518,#448,#449);
#372=DIRECTION('',(0.,0.,1.));
#373=DIRECTION('',(1.,0.,0.));
#374=DIRECTION('',(1.,0.,-6.07153216591882E-17));
#375=DIRECTION('',(6.07153216591882E-17,0.,1.));
#376=DIRECTION('',(0.,1.,0.));
#377=DIRECTION('',(0.,0.,1.));
#378=DIRECTION('',(1.,0.,-6.07153216591882E-17));
#379=DIRECTION('',(6.07153216591882E-17,0.,1.));
#380=DIRECTION('',(0.,1.,0.));
#381=DIRECTION('',(0.,0.,1.));
#382=DIRECTION('',(1.,0.,-6.1257422745431E-17));
#383=DIRECTION('',(6.1257422745431E-17,0.,1.));
#384=DIRECTION('',(0.,1.,0.));
#385=DIRECTION('',(0.,0.,1.));
#386=DIRECTION('',(1.,0.,-6.1257422745431E-17));
#387=DIRECTION('',(6.1257422745431E-17,0.,1.));
#388=DIRECTION('',(0.,1.,0.));
#389=DIRECTION('',(0.,0.,1.));
#390=DIRECTION('',(1.,0.,-6.07153216591882E-17));
#391=DIRECTION('',(6.07153216591882E-17,0.,1.));
#392=DIRECTION('',(0.,1.,0.));
#393=DIRECTION('',(0.,0.,1.));
#394=DIRECTION('',(1.,0.,-6.07153216591882E-17));
#395=DIRECTION('',(6.07153216591882E-17,0.,1.));
#396=DIRECTION('',(0.,1.,0.));
#397=DIRECTION('',(0.,0.,1.));
#398=DIRECTION('',(1.,0.,-6.1257422745431E-17));
#399=DIRECTION('',(6.1257422745431E-17,0.,1.));
#400=DIRECTION('',(0.,1.,0.));
#401=DIRECTION('',(0.,0.,1.));
#402=DIRECTION('',(1.,0.,-6.1257422745431E-17));
#403=DIRECTION('',(6.1257422745431E-17,0.,1.));
#404=DIRECTION('',(0.,1.,0.));
#405=DIRECTION('',(0.,0.,1.));
#406=DIRECTION('',(0.,0.,1.));
#407=DIRECTION('',(1.,0.,0.));
#408=DIRECTION('',(-1.,0.,0.));
#409=DIRECTION('',(0.,-1.,0.));
#410=DIRECTION('',(-1.,0.,0.));
#411=DIRECTION('',(0.,1.,0.));
#412=DIRECTION('',(0.,0.,-1.));
#413=DIRECTION('',(-1.,0.,0.));
#414=DIRECTION('',(1.,0.,0.));
#415=DIRECTION('',(0.,-1.,0.));
#416=DIRECTION('',(1.,0.,0.));
#417=DIRECTION('',(0.,1.,0.));
#418=DIRECTION('',(0.,1.,0.));
#419=DIRECTION('',(0.,0.,1.));
#420=DIRECTION('',(0.,0.,-1.));
#421=DIRECTION('',(0.,0.,1.));
#422=DIRECTION('',(0.,1.,0.));
#423=DIRECTION('',(0.,0.,1.));
#424=DIRECTION('',(0.,0.,-1.));
#425=DIRECTION('',(0.,0.,1.));
#426=DIRECTION('',(1.,0.,0.));
#427=DIRECTION('',(0.,0.,-1.));
#428=DIRECTION('',(-1.,0.,0.));
#429=DIRECTION('',(0.,0.,1.));
#430=DIRECTION('',(0.,0.,1.));
#431=DIRECTION('',(1.,0.,0.));
#432=DIRECTION('',(1.,0.,-6.1257422745431E-17));
#433=DIRECTION('',(6.1257422745431E-17,0.,1.));
#434=DIRECTION('',(1.,0.,-6.1257422745431E-17));
#435=DIRECTION('',(6.1257422745431E-17,0.,1.));
#436=DIRECTION('',(1.,0.,-6.07153216591882E-17));
#437=DIRECTION('',(6.07153216591882E-17,0.,1.));
#438=DIRECTION('',(1.,0.,-6.07153216591882E-17));
#439=DIRECTION('',(6.07153216591882E-17,0.,1.));
#440=DIRECTION('',(1.,0.,-6.1257422745431E-17));
#441=DIRECTION('',(6.1257422745431E-17,0.,1.));
#442=DIRECTION('',(1.,0.,-6.1257422745431E-17));
#443=DIRECTION('',(6.1257422745431E-17,0.,1.));
#444=DIRECTION('',(1.,0.,-6.07153216591882E-17));
#445=DIRECTION('',(6.07153216591882E-17,0.,1.));
#446=DIRECTION('',(1.,0.,-6.07153216591882E-17));
#447=DIRECTION('',(6.07153216591882E-17,0.,1.));
#448=DIRECTION('',(2.77555756156289E-17,3.08148791101958E-33,1.));
#449=DIRECTION('',(1.,0.,-2.77555756156289E-17));
#450=CARTESIAN_POINT('',(0.,0.,0.));
#451=CARTESIAN_POINT('',(-0.24988575917538,0.349428321298581,-0.749540093434311));
#452=CARTESIAN_POINT('',(-0.24988575917538,0.295,-0.749540093434311));
#453=CARTESIAN_POINT('',(-0.24988575917538,0.295,-0.648235810007506));
#454=CARTESIAN_POINT('',(0.250114240824787,0.349428321298581,-0.749540093434311));
#455=CARTESIAN_POINT('',(0.250114240824787,0.295,-0.749540093434311));
#456=CARTESIAN_POINT('',(0.250114240824787,0.295,-0.648235810007506));
#457=CARTESIAN_POINT('',(-0.24988575917538,0.349428321298581,0.250459906565689));
#458=CARTESIAN_POINT('',(-0.24988575917538,0.295,0.250459906565689));
#459=CARTESIAN_POINT('',(-0.24988575917538,0.295,0.351764189992494));
#460=CARTESIAN_POINT('',(0.250114240824787,0.349428321298581,0.250459906565689));
#461=CARTESIAN_POINT('',(0.250114240824787,0.295,0.250459906565689));
#462=CARTESIAN_POINT('',(0.250114240824787,0.295,0.351764189992494));
#463=CARTESIAN_POINT('',(-0.24988575917538,0.349428321298581,0.75045990656569));
#464=CARTESIAN_POINT('',(-0.24988575917538,0.295,0.75045990656569));
#465=CARTESIAN_POINT('',(-0.24988575917538,0.295,0.851764189992495));
#466=CARTESIAN_POINT('',(0.250114240824787,0.349428321298581,0.75045990656569));
#467=CARTESIAN_POINT('',(0.250114240824787,0.295,0.75045990656569));
#468=CARTESIAN_POINT('',(0.250114240824787,0.295,0.851764189992495));
#469=CARTESIAN_POINT('',(-0.24988575917538,0.349428321298581,-0.249540093434311));
#470=CARTESIAN_POINT('',(-0.24988575917538,0.295,-0.249540093434311));
#471=CARTESIAN_POINT('',(-0.24988575917538,0.295,-0.148235810007506));
#472=CARTESIAN_POINT('',(0.250114240824787,0.349428321298581,-0.249540093434311));
#473=CARTESIAN_POINT('',(0.250114240824787,0.295,-0.249540093434311));
#474=CARTESIAN_POINT('',(0.250114240824787,0.295,-0.148235810007506));
#475=CARTESIAN_POINT('',(0.430000000000152,0.295,-0.94));
#476=CARTESIAN_POINT('',(0.430000000000152,0.,-0.94));
#477=CARTESIAN_POINT('',(0.440000000000152,0.,-0.94));
#478=CARTESIAN_POINT('',(-0.440000000000152,0.,-0.94));
#479=CARTESIAN_POINT('',(-0.440000000000152,0.295,-0.94));
#480=CARTESIAN_POINT('',(-0.440000000000152,0.295,-0.94));
#481=CARTESIAN_POINT('',(0.430000000000152,0.295,-0.94));
#482=CARTESIAN_POINT('',(0.440000000000152,0.295,-0.94));
#483=CARTESIAN_POINT('',(0.440000000000152,0.295,-0.94));
#484=CARTESIAN_POINT('',(-0.430000000000152,0.295,0.94));
#485=CARTESIAN_POINT('',(-0.430000000000152,0.,0.94));
#486=CARTESIAN_POINT('',(-0.440000000000152,0.,0.94));
#487=CARTESIAN_POINT('',(0.440000000000152,0.,0.94));
#488=CARTESIAN_POINT('',(0.440000000000152,0.295,0.94));
#489=CARTESIAN_POINT('',(0.440000000000152,0.295,0.94));
#490=CARTESIAN_POINT('',(-0.430000000000152,0.295,0.94));
#491=CARTESIAN_POINT('',(-0.440000000000152,0.295,0.94));
#492=CARTESIAN_POINT('',(-0.440000000000152,0.295,0.94));
#493=CARTESIAN_POINT('',(0.,0.295,0.));
#494=CARTESIAN_POINT('',(-0.440000000000152,0.295,-0.944999999999939));
#495=CARTESIAN_POINT('',(0.440000000000152,0.295,0.944999999999939));
#496=CARTESIAN_POINT('',(0.,0.,0.));
#497=CARTESIAN_POINT('',(0.440000000000152,0.,0.944999999999939));
#498=CARTESIAN_POINT('',(-0.440000000000152,0.,-0.944999999999939));
#499=CARTESIAN_POINT('',(0.440000000000152,0.,0.));
#500=CARTESIAN_POINT('',(-0.440000000000152,0.,0.));
#501=CARTESIAN_POINT('',(-0.305114240824772,0.383838649568298,1.81954009343425));
#502=CARTESIAN_POINT('',(0.250000000000083,0.,-0.25));
#503=CARTESIAN_POINT('',(0.135000000000083,0.,-0.25));
#504=CARTESIAN_POINT('',(-0.250000000000083,0.,-0.25));
#505=CARTESIAN_POINT('',(-0.365000000000083,0.,-0.25));
#506=CARTESIAN_POINT('',(0.250000000000083,0.,0.750000000000001));
#507=CARTESIAN_POINT('',(0.135000000000083,0.,0.750000000000001));
#508=CARTESIAN_POINT('',(-0.250000000000083,0.,0.750000000000001));
#509=CARTESIAN_POINT('',(-0.365000000000083,0.,0.750000000000001));
#510=CARTESIAN_POINT('',(0.250000000000083,0.,0.25));
#511=CARTESIAN_POINT('',(0.135000000000083,0.,0.25));
#512=CARTESIAN_POINT('',(-0.250000000000083,0.,0.25));
#513=CARTESIAN_POINT('',(-0.365000000000083,0.,0.25));
#514=CARTESIAN_POINT('',(0.250000000000083,0.,-0.750000000000001));
#515=CARTESIAN_POINT('',(0.135000000000083,0.,-0.750000000000001));
#516=CARTESIAN_POINT('',(-0.250000000000083,0.,-0.750000000000001));
#517=CARTESIAN_POINT('',(-0.365000000000083,0.,-0.750000000000001));
#518=CARTESIAN_POINT('',(-0.305000000000069,0.73326697086688,1.81999999999994));
#519=MECHANICAL_DESIGN_GEOMETRIC_PRESENTATION_REPRESENTATION('',(#259,#260,
#261,#262,#263,#264,#265,#266,#267),#520);
#520=(
GEOMETRIC_REPRESENTATION_CONTEXT(3)
GLOBAL_UNCERTAINTY_ASSIGNED_CONTEXT((#523))
GLOBAL_UNIT_ASSIGNED_CONTEXT((#528,#527,#526))
REPRESENTATION_CONTEXT('X3-TSN2121-2','TOP_LEVEL_ASSEMBLY_PART')
);
#521=(
GEOMETRIC_REPRESENTATION_CONTEXT(3)
GLOBAL_UNCERTAINTY_ASSIGNED_CONTEXT((#524))
GLOBAL_UNIT_ASSIGNED_CONTEXT((#528,#527,#526))
REPRESENTATION_CONTEXT('Compound','COMPONENT_PART')
);
#522=(
GEOMETRIC_REPRESENTATION_CONTEXT(3)
GLOBAL_UNCERTAINTY_ASSIGNED_CONTEXT((#525))
GLOBAL_UNIT_ASSIGNED_CONTEXT((#528,#527,#526))
REPRESENTATION_CONTEXT('BALL','COMPONENT_PART')
);
#523=UNCERTAINTY_MEASURE_WITH_UNIT(LENGTH_MEASURE(0.005),#528,
'DISTANCE_ACCURACY_VALUE','Maximum Tolerance applied to model');
#524=UNCERTAINTY_MEASURE_WITH_UNIT(LENGTH_MEASURE(0.005),#528,
'DISTANCE_ACCURACY_VALUE','Maximum Tolerance applied to model');
#525=UNCERTAINTY_MEASURE_WITH_UNIT(LENGTH_MEASURE(0.005),#528,
'DISTANCE_ACCURACY_VALUE','Maximum Tolerance applied to model');
#526=(
NAMED_UNIT(*)
SI_UNIT($,.STERADIAN.)
SOLID_ANGLE_UNIT()
);
#527=(
NAMED_UNIT(*)
PLANE_ANGLE_UNIT()
SI_UNIT($,.RADIAN.)
);
#528=(
LENGTH_UNIT()
NAMED_UNIT(*)
SI_UNIT(.MILLI.,.METRE.)
);
#529=PRODUCT_DEFINITION_SHAPE('','',#534);
#530=PRODUCT_DEFINITION_SHAPE('','',#535);
#531=PRODUCT_DEFINITION_SHAPE(' ','NAUO PRDDFN',#28);
#532=PRODUCT_DEFINITION_SHAPE('','',#536);
#533=PRODUCT_DEFINITION_SHAPE(' ','NAUO PRDDFN',#29);
#534=PRODUCT_DEFINITION('','',#540,#537);
#535=PRODUCT_DEFINITION('','',#541,#538);
#536=PRODUCT_DEFINITION('','',#542,#539);
#537=PRODUCT_DEFINITION_CONTEXT('',#556,'design');
#538=PRODUCT_DEFINITION_CONTEXT('',#556,'design');
#539=PRODUCT_DEFINITION_CONTEXT('',#556,'design');
#540=PRODUCT_DEFINITION_FORMATION_WITH_SPECIFIED_SOURCE('','',#546,
 .NOT_KNOWN.);
#541=PRODUCT_DEFINITION_FORMATION_WITH_SPECIFIED_SOURCE('','',#547,
 .NOT_KNOWN.);
#542=PRODUCT_DEFINITION_FORMATION_WITH_SPECIFIED_SOURCE('','',#548,
 .NOT_KNOWN.);
#543=PRODUCT_RELATED_PRODUCT_CATEGORY('','',(#546));
#544=PRODUCT_RELATED_PRODUCT_CATEGORY('','',(#547));
#545=PRODUCT_RELATED_PRODUCT_CATEGORY('','',(#548));
#546=PRODUCT('X3-TSN2121-2','X3-TSN2121-2','X3-TSN2121-2',(#552));
#547=PRODUCT('Compound','Compound','Compound',(#553));
#548=PRODUCT('BALL','BALL','BALL',(#554));
#549=PRODUCT_CATEGORY('','');
#550=PRODUCT_CATEGORY('','');
#551=PRODUCT_CATEGORY('','');
#552=PRODUCT_CONTEXT('',#556,'mechanical');
#553=PRODUCT_CONTEXT('',#556,'mechanical');
#554=PRODUCT_CONTEXT('',#556,'mechanical');
#555=APPLICATION_PROTOCOL_DEFINITION('international standard',
'automotive_design',2010,#556);
#556=APPLICATION_CONTEXT(
'core data for automotive mechanical design processes');
ENDSEC;
END-ISO-10303-21;
