ISO-10303-21;
HEADER;
/* Generated by software containing ST-Developer
 * from STEP Tools, Inc. (www.steptools.com) 
 */
/* OPTION: strings as raw bytes, not using required /X/ escapes */

FILE_DESCRIPTION(
/* description */ ('Unknown'),
/* implementation_level */ '2;1');

FILE_NAME(
/* name */ 'X1-WLB0808-4',
/* time_stamp */ '2023-11-20T10:12:13+08:00',
/* author */ ('Unknown'),
/* organization */ ('Unknown'),
/* preprocessor_version */ 'ST-DEVELOPER v18.102',
/* originating_system */ 'Solid Edge',
/* authorisation */ 'Unknown');

FILE_SCHEMA (('AUTOMOTIVE_DESIGN {1 0 10303 214 3 1 1}'));
ENDSEC;

DATA;
#10=PROPERTY_DEFINITION_REPRESENTATION(#14,#12);
#11=PROPERTY_DEFINITION_REPRESENTATION(#15,#13);
#12=REPRESENTATION('',(#16),#404);
#13=REPRESENTATION('',(#17),#404);
#14=PROPERTY_DEFINITION('pmi validation property','',#413);
#15=PROPERTY_DEFINITION('pmi validation property','',#413);
#16=VALUE_REPRESENTATION_ITEM('number of annotations',COUNT_MEASURE(0.));
#17=VALUE_REPRESENTATION_ITEM('number of views',COUNT_MEASURE(0.));
#18=CYLINDRICAL_SURFACE('',#282,0.0532134828931703);
#19=LINE('',#371,#31);
#20=LINE('',#374,#32);
#21=LINE('',#376,#33);
#22=LINE('',#378,#34);
#23=LINE('',#380,#35);
#24=LINE('',#382,#36);
#25=LINE('',#384,#37);
#26=LINE('',#386,#38);
#27=LINE('',#388,#39);
#28=LINE('',#390,#40);
#29=LINE('',#392,#41);
#30=LINE('',#393,#42);
#31=VECTOR('',#316,1000.);
#32=VECTOR('',#317,1000.);
#33=VECTOR('',#318,1000.);
#34=VECTOR('',#319,1000.);
#35=VECTOR('',#322,1000.);
#36=VECTOR('',#323,1000.);
#37=VECTOR('',#324,1000.);
#38=VECTOR('',#327,1000.);
#39=VECTOR('',#328,1000.);
#40=VECTOR('',#329,1000.);
#41=VECTOR('',#332,1000.);
#42=VECTOR('',#333,1000.);
#43=PLANE('',#275);
#44=PLANE('',#276);
#45=PLANE('',#277);
#46=PLANE('',#278);
#47=PLANE('',#279);
#48=PLANE('',#280);
#49=PLANE('',#284);
#50=ORIENTED_EDGE('',*,*,#86,.T.);
#51=ORIENTED_EDGE('',*,*,#87,.T.);
#52=ORIENTED_EDGE('',*,*,#88,.T.);
#53=ORIENTED_EDGE('',*,*,#89,.T.);
#54=ORIENTED_EDGE('',*,*,#90,.T.);
#55=ORIENTED_EDGE('',*,*,#91,.F.);
#56=ORIENTED_EDGE('',*,*,#92,.F.);
#57=ORIENTED_EDGE('',*,*,#93,.T.);
#58=ORIENTED_EDGE('',*,*,#94,.T.);
#59=ORIENTED_EDGE('',*,*,#95,.F.);
#60=ORIENTED_EDGE('',*,*,#96,.F.);
#61=ORIENTED_EDGE('',*,*,#91,.T.);
#62=ORIENTED_EDGE('',*,*,#97,.T.);
#63=ORIENTED_EDGE('',*,*,#98,.F.);
#64=ORIENTED_EDGE('',*,*,#99,.F.);
#65=ORIENTED_EDGE('',*,*,#95,.T.);
#66=ORIENTED_EDGE('',*,*,#100,.T.);
#67=ORIENTED_EDGE('',*,*,#93,.F.);
#68=ORIENTED_EDGE('',*,*,#101,.F.);
#69=ORIENTED_EDGE('',*,*,#98,.T.);
#70=ORIENTED_EDGE('',*,*,#86,.F.);
#71=ORIENTED_EDGE('',*,*,#87,.F.);
#72=ORIENTED_EDGE('',*,*,#88,.F.);
#73=ORIENTED_EDGE('',*,*,#89,.F.);
#74=ORIENTED_EDGE('',*,*,#92,.T.);
#75=ORIENTED_EDGE('',*,*,#96,.T.);
#76=ORIENTED_EDGE('',*,*,#99,.T.);
#77=ORIENTED_EDGE('',*,*,#101,.T.);
#78=ORIENTED_EDGE('',*,*,#102,.F.);
#79=ORIENTED_EDGE('',*,*,#90,.F.);
#80=ORIENTED_EDGE('',*,*,#100,.F.);
#81=ORIENTED_EDGE('',*,*,#97,.F.);
#82=ORIENTED_EDGE('',*,*,#94,.F.);
#83=ORIENTED_EDGE('',*,*,#103,.F.);
#84=ORIENTED_EDGE('',*,*,#102,.T.);
#85=ORIENTED_EDGE('',*,*,#103,.T.);
#86=EDGE_CURVE('',#144,#144,#104,.T.);
#87=EDGE_CURVE('',#145,#145,#105,.T.);
#88=EDGE_CURVE('',#146,#146,#106,.T.);
#89=EDGE_CURVE('',#147,#147,#107,.T.);
#90=EDGE_CURVE('',#148,#149,#19,.T.);
#91=EDGE_CURVE('',#150,#149,#20,.T.);
#92=EDGE_CURVE('',#151,#150,#21,.T.);
#93=EDGE_CURVE('',#151,#148,#22,.T.);
#94=EDGE_CURVE('',#149,#152,#23,.T.);
#95=EDGE_CURVE('',#153,#152,#24,.T.);
#96=EDGE_CURVE('',#150,#153,#25,.T.);
#97=EDGE_CURVE('',#152,#154,#26,.T.);
#98=EDGE_CURVE('',#155,#154,#27,.T.);
#99=EDGE_CURVE('',#153,#155,#28,.T.);
#100=EDGE_CURVE('',#154,#148,#29,.T.);
#101=EDGE_CURVE('',#155,#151,#30,.T.);
#102=EDGE_CURVE('',#156,#156,#108,.T.);
#103=EDGE_CURVE('',#157,#157,#109,.T.);
#104=CIRCLE('',#268,0.087071192132818);
#105=CIRCLE('',#270,0.0871206890124559);
#106=CIRCLE('',#272,0.0871206890124559);
#107=CIRCLE('',#274,0.0870711921328182);
#108=CIRCLE('',#281,0.0532134828931703);
#109=CIRCLE('',#283,0.0532134828931703);
#110=EDGE_LOOP('',(#50));
#111=EDGE_LOOP('',(#51));
#112=EDGE_LOOP('',(#52));
#113=EDGE_LOOP('',(#53));
#114=EDGE_LOOP('',(#54,#55,#56,#57));
#115=EDGE_LOOP('',(#58,#59,#60,#61));
#116=EDGE_LOOP('',(#62,#63,#64,#65));
#117=EDGE_LOOP('',(#66,#67,#68,#69));
#118=EDGE_LOOP('',(#70));
#119=EDGE_LOOP('',(#71));
#120=EDGE_LOOP('',(#72));
#121=EDGE_LOOP('',(#73));
#122=EDGE_LOOP('',(#74,#75,#76,#77));
#123=EDGE_LOOP('',(#78));
#124=EDGE_LOOP('',(#79,#80,#81,#82));
#125=EDGE_LOOP('',(#83));
#126=EDGE_LOOP('',(#84));
#127=EDGE_LOOP('',(#85));
#128=CONTEXT_DEPENDENT_SHAPE_REPRESENTATION(#132,#415);
#129=CONTEXT_DEPENDENT_SHAPE_REPRESENTATION(#133,#417);
#130=NEXT_ASSEMBLY_USAGE_OCCURRENCE('BALL','BALL','BALL',#418,#419,'');
#131=NEXT_ASSEMBLY_USAGE_OCCURRENCE('Compound','Compound','Compound',#418,
#420,'');
#132=(
REPRESENTATION_RELATIONSHIP(' ',' ',#258,#259)
REPRESENTATION_RELATIONSHIP_WITH_TRANSFORMATION(#134)
SHAPE_REPRESENTATION_RELATIONSHIP()
);
#133=(
REPRESENTATION_RELATIONSHIP(' ',' ',#260,#259)
REPRESENTATION_RELATIONSHIP_WITH_TRANSFORMATION(#135)
SHAPE_REPRESENTATION_RELATIONSHIP()
);
#134=ITEM_DEFINED_TRANSFORMATION(' ',' ',#261,#266);
#135=ITEM_DEFINED_TRANSFORMATION(' ',' ',#261,#285);
#136=SHAPE_REPRESENTATION_RELATIONSHIP('','',#258,#138);
#137=SHAPE_REPRESENTATION_RELATIONSHIP('','',#260,#139);
#138=ADVANCED_BREP_SHAPE_REPRESENTATION('',(#250,#251,#252,#253),#405);
#139=ADVANCED_BREP_SHAPE_REPRESENTATION('',(#254),#406);
#140=VERTEX_POINT('',#350);
#141=VERTEX_POINT('',#352);
#142=VERTEX_POINT('',#354);
#143=VERTEX_POINT('',#356);
#144=VERTEX_POINT('',#360);
#145=VERTEX_POINT('',#363);
#146=VERTEX_POINT('',#366);
#147=VERTEX_POINT('',#369);
#148=VERTEX_POINT('',#372);
#149=VERTEX_POINT('',#373);
#150=VERTEX_POINT('',#375);
#151=VERTEX_POINT('',#377);
#152=VERTEX_POINT('',#381);
#153=VERTEX_POINT('',#383);
#154=VERTEX_POINT('',#387);
#155=VERTEX_POINT('',#389);
#156=VERTEX_POINT('',#397);
#157=VERTEX_POINT('',#400);
#158=VERTEX_LOOP('',#140);
#159=VERTEX_LOOP('',#141);
#160=VERTEX_LOOP('',#142);
#161=VERTEX_LOOP('',#143);
#162=FACE_BOUND('',#158,.T.);
#163=FACE_BOUND('',#159,.T.);
#164=FACE_BOUND('',#160,.T.);
#165=FACE_BOUND('',#161,.T.);
#166=FACE_BOUND('',#110,.T.);
#167=FACE_BOUND('',#111,.T.);
#168=FACE_BOUND('',#112,.T.);
#169=FACE_BOUND('',#113,.T.);
#170=FACE_BOUND('',#114,.T.);
#171=FACE_BOUND('',#115,.T.);
#172=FACE_BOUND('',#116,.T.);
#173=FACE_BOUND('',#117,.T.);
#174=FACE_BOUND('',#118,.T.);
#175=FACE_BOUND('',#119,.T.);
#176=FACE_BOUND('',#120,.T.);
#177=FACE_BOUND('',#121,.T.);
#178=FACE_BOUND('',#122,.T.);
#179=FACE_BOUND('',#123,.T.);
#180=FACE_BOUND('',#124,.T.);
#181=FACE_BOUND('',#125,.T.);
#182=FACE_BOUND('',#126,.T.);
#183=FACE_BOUND('',#127,.T.);
#184=SPHERICAL_SURFACE('',#262,0.1095);
#185=SPHERICAL_SURFACE('',#263,0.1095);
#186=SPHERICAL_SURFACE('',#264,0.1095);
#187=SPHERICAL_SURFACE('',#265,0.1095);
#188=SPHERICAL_SURFACE('',#267,0.1095);
#189=SPHERICAL_SURFACE('',#269,0.1095);
#190=SPHERICAL_SURFACE('',#271,0.1095);
#191=SPHERICAL_SURFACE('',#273,0.1095);
#192=ADVANCED_FACE('',(#162),#184,.T.);
#193=ADVANCED_FACE('',(#163),#185,.T.);
#194=ADVANCED_FACE('',(#164),#186,.T.);
#195=ADVANCED_FACE('',(#165),#187,.T.);
#196=ADVANCED_FACE('',(#166),#188,.F.);
#197=ADVANCED_FACE('',(#167),#189,.F.);
#198=ADVANCED_FACE('',(#168),#190,.F.);
#199=ADVANCED_FACE('',(#169),#191,.F.);
#200=ADVANCED_FACE('',(#170),#43,.F.);
#201=ADVANCED_FACE('',(#171),#44,.F.);
#202=ADVANCED_FACE('',(#172),#45,.F.);
#203=ADVANCED_FACE('',(#173),#46,.F.);
#204=ADVANCED_FACE('',(#174,#175,#176,#177,#178),#47,.T.);
#205=ADVANCED_FACE('',(#179,#180),#48,.F.);
#206=ADVANCED_FACE('',(#181,#182),#18,.F.);
#207=ADVANCED_FACE('',(#183),#49,.T.);
#208=CLOSED_SHELL('',(#192));
#209=CLOSED_SHELL('',(#193));
#210=CLOSED_SHELL('',(#194));
#211=CLOSED_SHELL('',(#195));
#212=CLOSED_SHELL('',(#196,#197,#198,#199,#200,#201,#202,#203,#204,#205,
#206,#207));
#213=STYLED_ITEM('',(#218),#250);
#214=STYLED_ITEM('',(#219),#251);
#215=STYLED_ITEM('',(#220),#252);
#216=STYLED_ITEM('',(#221),#253);
#217=STYLED_ITEM('',(#222),#254);
#218=PRESENTATION_STYLE_ASSIGNMENT((#223));
#219=PRESENTATION_STYLE_ASSIGNMENT((#224));
#220=PRESENTATION_STYLE_ASSIGNMENT((#225));
#221=PRESENTATION_STYLE_ASSIGNMENT((#226));
#222=PRESENTATION_STYLE_ASSIGNMENT((#227));
#223=SURFACE_STYLE_USAGE(.BOTH.,#228);
#224=SURFACE_STYLE_USAGE(.BOTH.,#229);
#225=SURFACE_STYLE_USAGE(.BOTH.,#230);
#226=SURFACE_STYLE_USAGE(.BOTH.,#231);
#227=SURFACE_STYLE_USAGE(.BOTH.,#232);
#228=SURFACE_SIDE_STYLE('',(#233));
#229=SURFACE_SIDE_STYLE('',(#234));
#230=SURFACE_SIDE_STYLE('',(#235));
#231=SURFACE_SIDE_STYLE('',(#236));
#232=SURFACE_SIDE_STYLE('',(#237));
#233=SURFACE_STYLE_FILL_AREA(#238);
#234=SURFACE_STYLE_FILL_AREA(#239);
#235=SURFACE_STYLE_FILL_AREA(#240);
#236=SURFACE_STYLE_FILL_AREA(#241);
#237=SURFACE_STYLE_FILL_AREA(#242);
#238=FILL_AREA_STYLE('',(#243));
#239=FILL_AREA_STYLE('',(#244));
#240=FILL_AREA_STYLE('',(#245));
#241=FILL_AREA_STYLE('',(#246));
#242=FILL_AREA_STYLE('',(#247));
#243=FILL_AREA_STYLE_COLOUR('',#248);
#244=FILL_AREA_STYLE_COLOUR('',#248);
#245=FILL_AREA_STYLE_COLOUR('',#248);
#246=FILL_AREA_STYLE_COLOUR('',#248);
#247=FILL_AREA_STYLE_COLOUR('',#249);
#248=COLOUR_RGB('',0.819999992847443,0.819999992847443,0.819999992847443);
#249=COLOUR_RGB('',0.200000002980232,0.200000002980232,0.200000002980232);
#250=MANIFOLD_SOLID_BREP('',#208);
#251=MANIFOLD_SOLID_BREP('',#209);
#252=MANIFOLD_SOLID_BREP('',#210);
#253=MANIFOLD_SOLID_BREP('',#211);
#254=MANIFOLD_SOLID_BREP('',#212);
#255=SHAPE_DEFINITION_REPRESENTATION(#414,#258);
#256=SHAPE_DEFINITION_REPRESENTATION(#413,#259);
#257=SHAPE_DEFINITION_REPRESENTATION(#416,#260);
#258=SHAPE_REPRESENTATION('BALL',(#261),#405);
#259=SHAPE_REPRESENTATION('X1-WLB0808-4',(#261,#266,#285),#404);
#260=SHAPE_REPRESENTATION('Compound',(#261),#406);
#261=AXIS2_PLACEMENT_3D('',#348,#286,#287);
#262=AXIS2_PLACEMENT_3D('',#349,#288,#289);
#263=AXIS2_PLACEMENT_3D('',#351,#290,#291);
#264=AXIS2_PLACEMENT_3D('',#353,#292,#293);
#265=AXIS2_PLACEMENT_3D('',#355,#294,#295);
#266=AXIS2_PLACEMENT_3D('',#357,#296,#297);
#267=AXIS2_PLACEMENT_3D('',#358,#298,#299);
#268=AXIS2_PLACEMENT_3D('',#359,#300,#301);
#269=AXIS2_PLACEMENT_3D('',#361,#302,#303);
#270=AXIS2_PLACEMENT_3D('',#362,#304,#305);
#271=AXIS2_PLACEMENT_3D('',#364,#306,#307);
#272=AXIS2_PLACEMENT_3D('',#365,#308,#309);
#273=AXIS2_PLACEMENT_3D('',#367,#310,#311);
#274=AXIS2_PLACEMENT_3D('',#368,#312,#313);
#275=AXIS2_PLACEMENT_3D('',#370,#314,#315);
#276=AXIS2_PLACEMENT_3D('',#379,#320,#321);
#277=AXIS2_PLACEMENT_3D('',#385,#325,#326);
#278=AXIS2_PLACEMENT_3D('',#391,#330,#331);
#279=AXIS2_PLACEMENT_3D('',#394,#334,#335);
#280=AXIS2_PLACEMENT_3D('',#395,#336,#337);
#281=AXIS2_PLACEMENT_3D('',#396,#338,#339);
#282=AXIS2_PLACEMENT_3D('',#398,#340,#341);
#283=AXIS2_PLACEMENT_3D('',#399,#342,#343);
#284=AXIS2_PLACEMENT_3D('',#401,#344,#345);
#285=AXIS2_PLACEMENT_3D('',#402,#346,#347);
#286=DIRECTION('',(0.,0.,1.));
#287=DIRECTION('',(1.,0.,0.));
#288=DIRECTION('',(1.,0.,-6.1257422745431E-17));
#289=DIRECTION('',(6.1257422745431E-17,0.,1.));
#290=DIRECTION('',(1.,0.,-6.1257422745431E-17));
#291=DIRECTION('',(6.1257422745431E-17,0.,1.));
#292=DIRECTION('',(1.,0.,-6.1257422745431E-17));
#293=DIRECTION('',(6.1257422745431E-17,0.,1.));
#294=DIRECTION('',(1.,0.,-6.1257422745431E-17));
#295=DIRECTION('',(6.1257422745431E-17,0.,1.));
#296=DIRECTION('',(0.,0.,1.));
#297=DIRECTION('',(1.,0.,0.));
#298=DIRECTION('',(0.999999986814385,0.000162392210920043,-9.9379770102426E-17));
#299=DIRECTION('',(9.93872267922512E-17,-4.5909710209103E-17,1.));
#300=DIRECTION('',(0.,1.,0.));
#301=DIRECTION('',(0.,0.,1.));
#302=DIRECTION('',(0.999999986814385,0.000162392210920043,-9.9379770102426E-17));
#303=DIRECTION('',(9.93872267922512E-17,-4.5909710209103E-17,1.));
#304=DIRECTION('',(0.,1.,0.));
#305=DIRECTION('',(0.,0.,1.));
#306=DIRECTION('',(0.999999986814385,0.000162392210920043,-9.9379770102426E-17));
#307=DIRECTION('',(9.93872267922512E-17,-4.5909710209103E-17,1.));
#308=DIRECTION('',(0.,1.,0.));
#309=DIRECTION('',(0.,0.,1.));
#310=DIRECTION('',(0.999999986814385,0.000162392210920043,-9.9379770102426E-17));
#311=DIRECTION('',(9.93872267922512E-17,-4.5909710209103E-17,1.));
#312=DIRECTION('',(0.,1.,0.));
#313=DIRECTION('',(0.,0.,1.));
#314=DIRECTION('',(0.,0.,1.));
#315=DIRECTION('',(1.,0.,0.));
#316=DIRECTION('',(-1.,0.,0.));
#317=DIRECTION('',(0.,-1.,0.));
#318=DIRECTION('',(-1.,0.,0.));
#319=DIRECTION('',(0.,-1.,0.));
#320=DIRECTION('',(1.,0.,0.));
#321=DIRECTION('',(0.,0.,-1.));
#322=DIRECTION('',(0.,0.,1.));
#323=DIRECTION('',(0.,-1.,0.));
#324=DIRECTION('',(0.,0.,1.));
#325=DIRECTION('',(0.,0.,-1.));
#326=DIRECTION('',(-1.,0.,0.));
#327=DIRECTION('',(1.,0.,0.));
#328=DIRECTION('',(0.,-1.,0.));
#329=DIRECTION('',(1.,0.,0.));
#330=DIRECTION('',(-1.,0.,0.));
#331=DIRECTION('',(0.,0.,1.));
#332=DIRECTION('',(0.,0.,-1.));
#333=DIRECTION('',(0.,0.,-1.));
#334=DIRECTION('',(0.,1.,0.));
#335=DIRECTION('',(0.,0.,1.));
#336=DIRECTION('',(0.,1.,0.));
#337=DIRECTION('',(0.,0.,1.));
#338=DIRECTION('',(0.,-1.,0.));
#339=DIRECTION('',(1.,0.,0.));
#340=DIRECTION('',(0.,-1.,0.));
#341=DIRECTION('',(0.,0.,-1.));
#342=DIRECTION('',(0.,-1.,0.));
#343=DIRECTION('',(1.,0.,0.));
#344=DIRECTION('',(0.,-1.,0.));
#345=DIRECTION('',(0.,0.,-1.));
#346=DIRECTION('',(-3.8122347356995E-17,4.59258493152512E-17,1.));
#347=DIRECTION('',(0.999999986814385,-0.000162392210920043,3.8129804854537E-17));
#348=CARTESIAN_POINT('',(0.,0.,0.));
#349=CARTESIAN_POINT('',(0.199999999999423,0.,0.199999999999645));
#350=CARTESIAN_POINT('',(0.0904999999994229,0.,0.199999999999645));
#351=CARTESIAN_POINT('',(-0.200000000000533,0.,0.204999999999955));
#352=CARTESIAN_POINT('',(-0.309500000000533,0.,0.204999999999955));
#353=CARTESIAN_POINT('',(-0.200000000000533,0.,-0.200000000000922));
#354=CARTESIAN_POINT('',(-0.309500000000533,0.,-0.200000000000922));
#355=CARTESIAN_POINT('',(0.200000000000533,0.,-0.2049999999999));
#356=CARTESIAN_POINT('',(0.0905000000005331,0.,-0.2049999999999));
#357=CARTESIAN_POINT('',(0.,0.,0.));
#358=CARTESIAN_POINT('',(0.199734099808425,0.336399228162456,-0.209930335365739));
#359=CARTESIAN_POINT('',(0.199734099808425,0.27,-0.209930335365739));
#360=CARTESIAN_POINT('',(0.199734099808425,0.27,-0.122859143232921));
#361=CARTESIAN_POINT('',(-0.200265894918395,0.336334271278088,-0.204930335366761));
#362=CARTESIAN_POINT('',(-0.200265894918395,0.27,-0.204930335366761));
#363=CARTESIAN_POINT('',(-0.200265894918395,0.27,-0.117809646354305));
#364=CARTESIAN_POINT('',(-0.200265894918395,0.336334271278088,0.200069664634116));
#365=CARTESIAN_POINT('',(-0.200265894918395,0.27,0.200069664634116));
#366=CARTESIAN_POINT('',(-0.200265894918395,0.27,0.287190353646572));
#367=CARTESIAN_POINT('',(0.199734099807315,0.336399228162456,0.195069664633806));
#368=CARTESIAN_POINT('',(0.199734099807315,0.27,0.195069664633806));
#369=CARTESIAN_POINT('',(0.199734099807315,0.27,0.282140856766624));
#370=CARTESIAN_POINT('',(0.390000000000001,0.27,-0.389999999999779));
#371=CARTESIAN_POINT('',(0.390000000000001,0.,-0.389999999999779));
#372=CARTESIAN_POINT('',(0.390000000000001,0.,-0.389999999999779));
#373=CARTESIAN_POINT('',(-0.390000000000001,0.,-0.389999999999779));
#374=CARTESIAN_POINT('',(-0.390000000000001,0.27,-0.389999999999779));
#375=CARTESIAN_POINT('',(-0.390000000000001,0.27,-0.389999999999779));
#376=CARTESIAN_POINT('',(0.390000000000001,0.27,-0.389999999999779));
#377=CARTESIAN_POINT('',(0.390000000000001,0.27,-0.389999999999779));
#378=CARTESIAN_POINT('',(0.390000000000001,0.27,-0.389999999999779));
#379=CARTESIAN_POINT('',(-0.390000000000001,0.27,-0.389999999999779));
#380=CARTESIAN_POINT('',(-0.390000000000001,0.,-0.389999999999779));
#381=CARTESIAN_POINT('',(-0.390000000000001,0.,0.389999999999724));
#382=CARTESIAN_POINT('',(-0.390000000000001,0.27,0.389999999999724));
#383=CARTESIAN_POINT('',(-0.390000000000001,0.27,0.389999999999724));
#384=CARTESIAN_POINT('',(-0.390000000000001,0.27,-0.389999999999779));
#385=CARTESIAN_POINT('',(-0.390000000000001,0.27,0.389999999999724));
#386=CARTESIAN_POINT('',(-0.390000000000001,0.,0.389999999999724));
#387=CARTESIAN_POINT('',(0.390000000000001,0.,0.389999999999724));
#388=CARTESIAN_POINT('',(0.390000000000001,0.27,0.389999999999724));
#389=CARTESIAN_POINT('',(0.390000000000001,0.27,0.389999999999724));
#390=CARTESIAN_POINT('',(-0.390000000000001,0.27,0.389999999999724));
#391=CARTESIAN_POINT('',(0.390000000000001,0.27,0.389999999999724));
#392=CARTESIAN_POINT('',(0.390000000000001,0.,0.389999999999724));
#393=CARTESIAN_POINT('',(0.390000000000001,0.27,0.389999999999724));
#394=CARTESIAN_POINT('',(0.,0.27,0.));
#395=CARTESIAN_POINT('',(0.,0.,0.));
#396=CARTESIAN_POINT('',(0.288972763111794,0.,-0.282982825756894));
#397=CARTESIAN_POINT('',(0.342186246004965,0.,-0.282982825756894));
#398=CARTESIAN_POINT('',(0.288972763111794,0.02,-0.282982825756894));
#399=CARTESIAN_POINT('',(0.288972763111794,0.02,-0.282982825756894));
#400=CARTESIAN_POINT('',(0.342186246004965,0.02,-0.282982825756894));
#401=CARTESIAN_POINT('',(0.288972763111794,0.02,-0.282982825756894));
#402=CARTESIAN_POINT('',(0.000211274211312086,-0.336366788464761,0.00493033536583937));
#403=MECHANICAL_DESIGN_GEOMETRIC_PRESENTATION_REPRESENTATION('',(#213,#214,
#215,#216,#217),#404);
#404=(
GEOMETRIC_REPRESENTATION_CONTEXT(3)
GLOBAL_UNCERTAINTY_ASSIGNED_CONTEXT((#407))
GLOBAL_UNIT_ASSIGNED_CONTEXT((#412,#411,#410))
REPRESENTATION_CONTEXT('X1-WLB0808-4','TOP_LEVEL_ASSEMBLY_PART')
);
#405=(
GEOMETRIC_REPRESENTATION_CONTEXT(3)
GLOBAL_UNCERTAINTY_ASSIGNED_CONTEXT((#408))
GLOBAL_UNIT_ASSIGNED_CONTEXT((#412,#411,#410))
REPRESENTATION_CONTEXT('BALL','COMPONENT_PART')
);
#406=(
GEOMETRIC_REPRESENTATION_CONTEXT(3)
GLOBAL_UNCERTAINTY_ASSIGNED_CONTEXT((#409))
GLOBAL_UNIT_ASSIGNED_CONTEXT((#412,#411,#410))
REPRESENTATION_CONTEXT('Compound','COMPONENT_PART')
);
#407=UNCERTAINTY_MEASURE_WITH_UNIT(LENGTH_MEASURE(0.005),#412,
'DISTANCE_ACCURACY_VALUE','Maximum Tolerance applied to model');
#408=UNCERTAINTY_MEASURE_WITH_UNIT(LENGTH_MEASURE(0.005),#412,
'DISTANCE_ACCURACY_VALUE','Maximum Tolerance applied to model');
#409=UNCERTAINTY_MEASURE_WITH_UNIT(LENGTH_MEASURE(0.005),#412,
'DISTANCE_ACCURACY_VALUE','Maximum Tolerance applied to model');
#410=(
NAMED_UNIT(*)
SI_UNIT($,.STERADIAN.)
SOLID_ANGLE_UNIT()
);
#411=(
NAMED_UNIT(*)
PLANE_ANGLE_UNIT()
SI_UNIT($,.RADIAN.)
);
#412=(
LENGTH_UNIT()
NAMED_UNIT(*)
SI_UNIT(.MILLI.,.METRE.)
);
#413=PRODUCT_DEFINITION_SHAPE('','',#418);
#414=PRODUCT_DEFINITION_SHAPE('','',#419);
#415=PRODUCT_DEFINITION_SHAPE(' ','NAUO PRDDFN',#130);
#416=PRODUCT_DEFINITION_SHAPE('','',#420);
#417=PRODUCT_DEFINITION_SHAPE(' ','NAUO PRDDFN',#131);
#418=PRODUCT_DEFINITION('','',#424,#421);
#419=PRODUCT_DEFINITION('','',#425,#422);
#420=PRODUCT_DEFINITION('','',#426,#423);
#421=PRODUCT_DEFINITION_CONTEXT('',#440,'design');
#422=PRODUCT_DEFINITION_CONTEXT('',#440,'design');
#423=PRODUCT_DEFINITION_CONTEXT('',#440,'design');
#424=PRODUCT_DEFINITION_FORMATION_WITH_SPECIFIED_SOURCE('','',#430,
 .NOT_KNOWN.);
#425=PRODUCT_DEFINITION_FORMATION_WITH_SPECIFIED_SOURCE('','',#431,
 .NOT_KNOWN.);
#426=PRODUCT_DEFINITION_FORMATION_WITH_SPECIFIED_SOURCE('','',#432,
 .NOT_KNOWN.);
#427=PRODUCT_RELATED_PRODUCT_CATEGORY('','',(#430));
#428=PRODUCT_RELATED_PRODUCT_CATEGORY('','',(#431));
#429=PRODUCT_RELATED_PRODUCT_CATEGORY('','',(#432));
#430=PRODUCT('X1-WLB0808-4','X1-WLB0808-4','X1-WLB0808-4',(#436));
#431=PRODUCT('BALL','BALL','BALL',(#437));
#432=PRODUCT('Compound','Compound','Compound',(#438));
#433=PRODUCT_CATEGORY('','');
#434=PRODUCT_CATEGORY('','');
#435=PRODUCT_CATEGORY('','');
#436=PRODUCT_CONTEXT('',#440,'mechanical');
#437=PRODUCT_CONTEXT('',#440,'mechanical');
#438=PRODUCT_CONTEXT('',#440,'mechanical');
#439=APPLICATION_PROTOCOL_DEFINITION('international standard',
'automotive_design',2010,#440);
#440=APPLICATION_CONTEXT(
'core data for automotive mechanical design processes');
ENDSEC;
END-ISO-10303-21;
